  0
SECTION
  2
HEADER
  9
$ACADVER
  1
AC1024
  9
$ACADMAINTVER
 70
     6
  9
$DWGCODEPAGE
  3
ASCII
  9
$INSBASE
 10
0.0
 20
0.0
 30
0.0
  9
$EXTMIN
 10
1.000000000000000E+20
 20
1.000000000000000E+20
 30
1.000000000000000E+20
  9
$EXTMAX
 10
-1.000000000000000E+20
 20
-1.000000000000000E+20
 30
-1.000000000000000E+20
  9
$LIMMIN
 10
0.0
 20
0.0
  9
$LIMMAX
 10
12.0
 20
9.0
  9
$ORTHOMODE
 70
     0
  9
$REGENMODE
 70
     1
  9
$FILLMODE
 70
     1
  9
$QTEXTMODE
 70
     0
  9
$MIRRTEXT
 70
     1
  9
$LTSCALE
 40
1.0
  9
$ATTMODE
 70
     1
  9
$TEXTSIZE
 40
0.2
  9
$TRACEWID
 40
0.05
  9
$TEXTSTYLE
  7
Standard
  9
$CLAYER
  8
0
  9
$CELTYPE
  6
ByLayer
  9
$CECOLOR
 62
   178
  9
$CELTSCALE
 40
1.0
  9
$DISPSILH
 70
     0
  9
$DIMSCALE
 40
1.0
  9
$DIMASZ
 40
2.5
  9
$DIMEXO
 40
0.625
  9
$DIMDLI
 40
0.38
  9
$DIMRND
 40
0.0
  9
$DIMDLE
 40
0.0
  9
$DIMEXE
 40
1.25
  9
$DIMTP
 40
0.0
  9
$DIMTM
 40
0.0
  9
$DIMTXT
 40
2.5
  9
$DIMCEN
 40
0.09
  9
$DIMTSZ
 40
0.0
  9
$DIMTOL
 70
     0
  9
$DIMLIM
 70
     0
  9
$DIMTIH
 70
     1
  9
$DIMTOH
 70
     1
  9
$DIMSE1
 70
     0
  9
$DIMSE2
 70
     0
  9
$DIMTAD
 70
     0
  9
$DIMZIN
 70
     8
  9
$DIMBLK
  1

  9
$DIMASO
 70
     1
  9
$DIMSHO
 70
     1
  9
$DIMPOST
  1

  9
$DIMAPOST
  1

  9
$DIMALT
 70
     0
  9
$DIMALTD
 70
     2
  9
$DIMALTF
 40
25.4
  9
$DIMLFAC
 40
1.0
  9
$DIMTOFL
 70
     0
  9
$DIMTVP
 40
0.0
  9
$DIMTIX
 70
     0
  9
$DIMSOXD
 70
     0
  9
$DIMSAH
 70
     0
  9
$DIMBLK1
  1

  9
$DIMBLK2
  1

  9
$DIMSTYLE
  2
Standard
  9
$DIMCLRD
 70
   178
  9
$DIMCLRE
 70
   178
  9
$DIMCLRT
 70
   178
  9
$DIMTFAC
 40
1.0
  9
$DIMGAP
 40
0.625
  9
$DIMJUST
 70
     0
  9
$DIMSD1
 70
     0
  9
$DIMSD2
 70
     0
  9
$DIMTOLJ
 70
     1
  9
$DIMTZIN
 70
     0
  9
$DIMALTZ
 70
     0
  9
$DIMALTTZ
 70
     0
  9
$DIMUPT
 70
     0
  9
$DIMDEC
 70
     4
  9
$DIMTDEC
 70
     4
  9
$DIMALTU
 70
     2
  9
$DIMALTTD
 70
     2
  9
$DIMTXSTY
  7
Standard
  9
$DIMAUNIT
 70
     0
  9
$DIMADEC
 70
     0
  9
$DIMALTRND
 40
0.0
  9
$DIMAZIN
 70
     2
  9
$DIMDSEP
 70
    46
  9
$DIMATFIT
 70
     3
  9
$DIMFRAC
 70
     0
  9
$DIMLDRBLK
  1

  9
$DIMLUNIT
 70
     2
  9
$DIMLWD
 70
    -2
  9
$DIMLWE
 70
    -2
  9
$DIMTMOVE
 70
     0
  9
$DIMFXL
 40
1.0
  9
$DIMFXLON
 70
     0
  9
$DIMJOGANG
 40
0.7853981633974483
  9
$DIMTFILL
 70
     0
  9
$DIMTFILLCLR
 70
     0
  9
$DIMARCSYM
 70
     0
  9
$DIMLTYPE
  6

  9
$DIMLTEX1
  6

  9
$DIMLTEX2
  6

  9
$DIMTXTDIRECTION
 70
     0
  9
$LUNITS
 70
     2
  9
$LUPREC
 70
     4
  9
$SKETCHINC
 40
0.1
  9
$FILLETRAD
 40
0.5
  9
$AUNITS
 70
     0
  9
$AUPREC
 70
     0
  9
$MENU
  1
.
  9
$ELEVATION
 40
0.0
  9
$PELEVATION
 40
0.0
  9
$THICKNESS
 40
0.0
  9
$LIMCHECK
 70
     0
  9
$CHAMFERA
 40
0.5
  9
$CHAMFERB
 40
0.5
  9
$CHAMFERC
 40
1.0
  9
$CHAMFERD
 40
0.0
  9
$SKPOLY
 70
     0
  9
$TDCREATE
 40
2456230.690520822
  9
$TDUCREATE
 40
2456230.648854167
  9
$TDUPDATE
 40
2456230.690520822
  9
$TDUUPDATE
 40
2456230.648854167
  9
$TDINDWG
 40
0.0000000116
  9
$TDUSRTIMER
 40
0.0000000116
  9
$USRTIMER
 70
     1
  9
$ANGBASE
 50
0.0
  9
$ANGDIR
 70
     0
  9
$PDMODE
 70
     0
  9
$PDSIZE
 40
0.0
  9
$PLINEWID
 40
0.0
  9
$SPLFRAME
 70
     0
  9
$SPLINETYPE
 70
     6
  9
$SPLINESEGS
 70
     8
  9
$HANDSEED
  5
304
  9
$SURFTAB1
 70
     6
  9
$SURFTAB2
 70
     6
  9
$SURFTYPE
 70
     6
  9
$SURFU
 70
     6
  9
$SURFV
 70
     6
  9
$UCSBASE
  2

  9
$UCSNAME
  2

  9
$UCSORG
 10
0.0
 20
0.0
 30
0.0
  9
$UCSXDIR
 10
1.0
 20
0.0
 30
0.0
  9
$UCSYDIR
 10
0.0
 20
1.0
 30
0.0
  9
$UCSORTHOREF
  2

  9
$UCSORTHOVIEW
 70
     0
  9
$UCSORGTOP
 10
0.0
 20
0.0
 30
0.0
  9
$UCSORGBOTTOM
 10
0.0
 20
0.0
 30
0.0
  9
$UCSORGLEFT
 10
0.0
 20
0.0
 30
0.0
  9
$UCSORGRIGHT
 10
0.0
 20
0.0
 30
0.0
  9
$UCSORGFRONT
 10
0.0
 20
0.0
 30
0.0
  9
$UCSORGBACK
 10
0.0
 20
0.0
 30
0.0
  9
$PUCSBASE
  2

  9
$PUCSNAME
  2

  9
$PUCSORG
 10
0.0
 20
0.0
 30
0.0
  9
$PUCSXDIR
 10
1.0
 20
0.0
 30
0.0
  9
$PUCSYDIR
 10
0.0
 20
1.0
 30
0.0
  9
$PUCSORTHOREF
  2

  9
$PUCSORTHOVIEW
 70
     0
  9
$PUCSORGTOP
 10
0.0
 20
0.0
 30
0.0
  9
$PUCSORGBOTTOM
 10
0.0
 20
0.0
 30
0.0
  9
$PUCSORGLEFT
 10
0.0
 20
0.0
 30
0.0
  9
$PUCSORGRIGHT
 10
0.0
 20
0.0
 30
0.0
  9
$PUCSORGFRONT
 10
0.0
 20
0.0
 30
0.0
  9
$PUCSORGBACK
 10
0.0
 20
0.0
 30
0.0
  9
$USERI1
 70
     0
  9
$USERI2
 70
     0
  9
$USERI3
 70
     0
  9
$USERI4
 70
     0
  9
$USERI5
 70
     0
  9
$USERR1
 40
0.0
  9
$USERR2
 40
0.0
  9
$USERR3
 40
0.0
  9
$USERR4
 40
0.0
  9
$USERR5
 40
0.0
  9
$WORLDVIEW
 70
     1
  9
$SHADEDGE
 70
     3
  9
$SHADEDIF
 70
    70
  9
$TILEMODE
 70
     1
  9
$MAXACTVP
 70
    64
  9
$PINSBASE
 10
0.0
 20
0.0
 30
0.0
  9
$PLIMCHECK
 70
     0
  9
$PEXTMIN
 10
1.000000000000000E+20
 20
1.000000000000000E+20
 30
1.000000000000000E+20
  9
$PEXTMAX
 10
-1.000000000000000E+20
 20
-1.000000000000000E+20
 30
-1.000000000000000E+20
  9
$PLIMMIN
 10
0.0
 20
0.0
  9
$PLIMMAX
 10
12.0
 20
9.0
  9
$UNITMODE
 70
     0
  9
$VISRETAIN
 70
     1
  9
$PLINEGEN
 70
     0
  9
$PSLTSCALE
 70
     1
  9
$TREEDEPTH
 70
  3020
  9
$CMLSTYLE
  2
Standard
  9
$CMLJUST
 70
     0
  9
$CMLSCALE
 40
1.0
  9
$PROXYGRAPHICS
 70
     1
  9
$MEASUREMENT
 70
     1
  9
$CELWEIGHT
370
    -1
  9
$ENDCAPS
280
     0
  9
$JOINSTYLE
280
     0
  9
$LWDISPLAY
290
     0
  9
$INSUNITS
 70
     4
  9
$HYPERLINKBASE
  1

  9
$STYLESHEET
  1

  9
$XEDIT
290
     1
  9
$CEPSNTYPE
380
     0
  9
$PSTYLEMODE
290
     1
  9
$FINGERPRINTGUID
  2
{43A3A805-BF07-62A2-A263-74036DFE82B1}
  9
$VERSIONGUID
  2
{FAEB1C32-E019-11D5-929B-00C0DF256EC4}
  9
$EXTNAMES
290
     1
  9
$PSVPSCALE
 40
0.0
  9
$OLESTARTUP
290
     0
  9
$SORTENTS
280
   127
  9
$INDEXCTL
280
     0
  9
$HIDETEXT
280
     1
  9
$XCLIPFRAME
280
     2
  9
$HALOGAP
280
     0
  9
$OBSCOLOR
 70
   257
  9
$OBSLTYPE
280
     0
  9
$INTERSECTIONDISPLAY
280
     0
  9
$INTERSECTIONCOLOR
 70
   257
  9
$DIMASSOC
280
     2
  9
$PROJECTNAME
  1

  9
$CAMERADISPLAY
290
     0
  9
$LENSLENGTH
 40
50.0
  9
$CAMERAHEIGHT
 40
0.0
  9
$STEPSPERSEC
 40
2.0
  9
$STEPSIZE
 40
6.0
  9
$3DDWFPREC
 40
2.0
  9
$PSOLWIDTH
 40
0.25
  9
$PSOLHEIGHT
 40
4.0
  9
$LOFTANG1
 40
1.570796326794897
  9
$LOFTANG2
 40
1.570796326794897
  9
$LOFTMAG1
 40
0.0
  9
$LOFTMAG2
 40
0.0
  9
$LOFTPARAM
 70
     7
  9
$LOFTNORMALS
280
     1
  9
$LATITUDE
 40
37.795
  9
$LONGITUDE
 40
-122.394
  9
$NORTHDIRECTION
 40
0.0
  9
$TIMEZONE
 70
 -8000
  9
$LIGHTGLYPHDISPLAY
280
     1
  9
$TILEMODELIGHTSYNCH
280
     1
  9
$CMATERIAL
347
293
  9
$SOLIDHIST
280
     1
  9
$SHOWHIST
280
     1
  9
$DWFFRAME
280
     2
  9
$DGNFRAME
280
     2
  9
$REALWORLDSCALE
290
     1
  9
$INTERFERECOLOR
 62
   256
  9
$CSHADOW
280
     0
  9
$SHADOWPLANELOCATION
 40
0.0
  0
ENDSEC
  0
SECTION
  2
CLASSES
  0
CLASS
  1
ACDBDICTIONARYWDFLT
  2
AcDbDictionaryWithDefault
  3
ObjectDBX Classes
 90
        0
 91
        4
280
     0
281
     0
  0
CLASS
  1
VISUALSTYLE
  2
AcDbVisualStyle
  3
ObjectDBX Classes
 90
     4095
 91
        4
280
     0
281
     0
  0
CLASS
  1
MATERIAL
  2
AcDbMaterial
  3
ObjectDBX Classes
 90
     1153
 91
        4
280
     0
281
     0
  0
CLASS
  1
SCALE
  2
AcDbScale
  3
ObjectDBX Classes
 90
     1153
 91
        4
280
     0
281
     0
  0
CLASS
  1
SUN
  2
AcDbSun
  3
SCENEOE
 90
     1153
 91
        4
280
     0
281
     0
  0
CLASS
  1
DICTIONARYVAR
  2
AcDbDictionaryVar
  3
ObjectDBX Classes
 90
        0
 91
        4
280
     0
281
     0
  0
ENDSEC
  0
SECTION
  2
TABLES
  0
TABLE
  2
VPORT
  5
260
330
0
100
AcDbSymbolTable
 70
     1
  0
VPORT
  5
280
330
260
100
AcDbSymbolTableRecord
100
AcDbViewportTableRecord
  2
*Active
 70
     0
 10
0.0
 20
0.0
 11
1.0
 21
1.0
 12
10.42990654205607
 22
4.5
 13
0.0
 23
0.0
 14
0.5
 24
0.5
 15
0.5
 25
0.5
 16
0.0
 26
0.0
 36
1.0
 17
0.0
 27
0.0
 37
0.0
 40
9.0
 41
1.972972972850329
 42
50.0
 43
0.0
 44
0.0
 50
0.0
 51
0.0
 71
     0
 72
   100
 73
     1
 74
     3
 75
     0
 76
     0
 77
     0
 78
     0
281
     0
 65
     1
110
0.0
120
0.0
130
0.0
111
1.0
121
0.0
131
0.0
112
0.0
122
1.0
132
0.0
 79
     0
146
0.0
 60
     3
 61
     5
292
     1
282
     1
141
0.0
142
0.0
 63
   250
361
2B8
  0
ENDTAB
  0
TABLE
  2
LTYPE
  5
25D
330
0
100
AcDbSymbolTable
 70
    19
  0
LTYPE
  5
26B
330
25D
100
AcDbSymbolTableRecord
100
AcDbLinetypeTableRecord
  2
ByBlock
 70
     0
  3

 72
    65
 73
     0
 40
0.0
  0
LTYPE
  5
26C
330
25D
100
AcDbSymbolTableRecord
100
AcDbLinetypeTableRecord
  2
ByLayer
 70
     0
  3

 72
    65
 73
     0
 40
0.0
  0
LTYPE
  5
26D
330
25D
100
AcDbSymbolTableRecord
100
AcDbLinetypeTableRecord
  2
Continuous
 70
     0
  3
Solid line
 72
    65
 73
     0
 40
0.0
  0
LTYPE
  5
2E8
330
25D
100
AcDbSymbolTableRecord
100
AcDbLinetypeTableRecord
  2
BORDER
 70
     0
  3

 72
    65
 73
     6
 40
42.00000000000001
 49
12.0
 74
     0
 49
-6.0
 74
     0
 49
12.0
 74
     0
 49
-5.95
 74
     0
 49
0.1
 74
     0
 49
-5.95
 74
     0
  0
LTYPE
  5
2E9
330
25D
100
AcDbSymbolTableRecord
100
AcDbLinetypeTableRecord
  2
BORDER2
 70
     0
  3

 72
    65
 73
     6
 40
21.0
 49
6.0
 74
     0
 49
-3.0
 74
     0
 49
6.0
 74
     0
 49
-2.95
 74
     0
 49
0.1
 74
     0
 49
-2.95
 74
     0
  0
LTYPE
  5
2EA
330
25D
100
AcDbSymbolTableRecord
100
AcDbLinetypeTableRecord
  2
BORDERX2
 70
     0
  3

 72
    65
 73
     6
 40
84.0
 49
24.0
 74
     0
 49
-12.0
 74
     0
 49
24.0
 74
     0
 49
-11.95
 74
     0
 49
0.1
 74
     0
 49
-11.95
 74
     0
  0
LTYPE
  5
2EB
330
25D
100
AcDbSymbolTableRecord
100
AcDbLinetypeTableRecord
  2
CENTER
 70
     0
  3

 72
    65
 73
     4
 40
50.0
 49
32.0
 74
     0
 49
-6.0
 74
     0
 49
6.0
 74
     0
 49
-6.0
 74
     0
  0
LTYPE
  5
2EC
330
25D
100
AcDbSymbolTableRecord
100
AcDbLinetypeTableRecord
  2
CENTER2
 70
     0
  3

 72
    65
 73
     4
 40
25.0
 49
16.0
 74
     0
 49
-3.0
 74
     0
 49
3.0
 74
     0
 49
-3.0
 74
     0
  0
LTYPE
  5
2ED
330
25D
100
AcDbSymbolTableRecord
100
AcDbLinetypeTableRecord
  2
CENTERX2
 70
     0
  3

 72
    65
 73
     4
 40
100.0
 49
64.0
 74
     0
 49
-12.0
 74
     0
 49
12.0
 74
     0
 49
-12.0
 74
     0
  0
LTYPE
  5
2EE
330
25D
100
AcDbSymbolTableRecord
100
AcDbLinetypeTableRecord
  2
DASHDOT
 70
     0
  3

 72
    65
 73
     4
 40
24.0
 49
12.0
 74
     0
 49
-5.95
 74
     0
 49
0.1
 74
     0
 49
-5.95
 74
     0
  0
LTYPE
  5
2EF
330
25D
100
AcDbSymbolTableRecord
100
AcDbLinetypeTableRecord
  2
DASHDOT2
 70
     0
  3

 72
    65
 73
     4
 40
12.0
 49
6.0
 74
     0
 49
-2.95
 74
     0
 49
0.1
 74
     0
 49
-2.95
 74
     0
  0
LTYPE
  5
2F0
330
25D
100
AcDbSymbolTableRecord
100
AcDbLinetypeTableRecord
  2
DASHDOTX2
 70
     0
  3

 72
    65
 73
     4
 40
48.0
 49
24.0
 74
     0
 49
-11.95
 74
     0
 49
0.1
 74
     0
 49
-11.95
 74
     0
  0
LTYPE
  5
2F1
330
25D
100
AcDbSymbolTableRecord
100
AcDbLinetypeTableRecord
  2
DASHED
 70
     0
  3

 72
    65
 73
     2
 40
18.0
 49
12.0
 74
     0
 49
-6.0
 74
     0
  0
LTYPE
  5
2F2
330
25D
100
AcDbSymbolTableRecord
100
AcDbLinetypeTableRecord
  2
DASHED2
 70
     0
  3

 72
    65
 73
     2
 40
9.0
 49
6.0
 74
     0
 49
-3.0
 74
     0
  0
LTYPE
  5
2F3
330
25D
100
AcDbSymbolTableRecord
100
AcDbLinetypeTableRecord
  2
DASHEDX2
 70
     0
  3

 72
    65
 73
     2
 40
36.0
 49
24.0
 74
     0
 49
-12.0
 74
     0
  0
LTYPE
  5
2F4
330
25D
100
AcDbSymbolTableRecord
100
AcDbLinetypeTableRecord
  2
DIVIDE
 70
     0
  3

 72
    65
 73
     6
 40
29.99999999999999
 49
12.0
 74
     0
 49
-5.9
 74
     0
 49
0.15
 74
     0
 49
-5.9
 74
     0
 49
0.15
 74
     0
 49
-5.9
 74
     0
  0
LTYPE
  5
2F5
330
25D
100
AcDbSymbolTableRecord
100
AcDbLinetypeTableRecord
  2
DIVIDE2
 70
     0
  3

 72
    65
 73
     6
 40
15.0
 49
6.0
 74
     0
 49
-2.9
 74
     0
 49
0.15
 74
     0
 49
-2.9
 74
     0
 49
0.15
 74
     0
 49
-2.9
 74
     0
  0
LTYPE
  5
2F6
330
25D
100
AcDbSymbolTableRecord
100
AcDbLinetypeTableRecord
  2
DIVIDEX2
 70
     0
  3

 72
    65
 73
     6
 40
59.99999999999999
 49
24.0
 74
     0
 49
-11.9
 74
     0
 49
0.15
 74
     0
 49
-11.9
 74
     0
 49
0.15
 74
     0
 49
-11.9
 74
     0
  0
LTYPE
  5
2F7
330
25D
100
AcDbSymbolTableRecord
100
AcDbLinetypeTableRecord
  2
DOT
 70
     0
  3

 72
    65
 73
     2
 40
6.3
 49
0.1
 74
     0
 49
-6.2
 74
     0
  0
LTYPE
  5
2F8
330
25D
100
AcDbSymbolTableRecord
100
AcDbLinetypeTableRecord
  2
DOT2
 70
     0
  3

 72
    65
 73
     2
 40
3.2
 49
0.1
 74
     0
 49
-3.1
 74
     0
  0
LTYPE
  5
2F9
330
25D
100
AcDbSymbolTableRecord
100
AcDbLinetypeTableRecord
  2
DOTX2
 70
     0
  3

 72
    65
 73
     2
 40
12.5
 49
0.1
 74
     0
 49
-12.4
 74
     0
  0
ENDTAB
  0
TABLE
  2
LAYER
  5
25A
330
0
100
AcDbSymbolTable
 70
     4
  0
LAYER
  5
268
330
25A
100
AcDbSymbolTableRecord
100
AcDbLayerTableRecord
  2
0
 70
     0
 62
     7
420
 16777215
  6
Continuous
370
    13
390
267
347
295
  0
LAYER
  5
2FA
330
25A
100
AcDbSymbolTableRecord
100
AcDbLayerTableRecord
  2
center
 70
     0
 62
     1
420
 16711680
  6
DASHDOT
370
    13
390
267
347
295
  0
LAYER
  5
2FB
330
25A
100
AcDbSymbolTableRecord
100
AcDbLayerTableRecord
  2
hidden
 70
     0
 62
     7
420
 16777215
  6
DASHED2
370
    13
390
267
347
295
  0
LAYER
  5
2FC
330
25A
100
AcDbSymbolTableRecord
100
AcDbLayerTableRecord
  2
aux
 70
     1
 62
     6
420
 16711935
  6
DOT
370
     5
390
267
347
295
  0
ENDTAB
  0
TABLE
  2
STYLE
  5
25B
330
0
100
AcDbSymbolTable
 70
     1
  0
STYLE
  5
269
330
25B
100
AcDbSymbolTableRecord
100
AcDbTextStyleTableRecord
  2
Standard
 70
     0
 40
0.0
 41
1.0
 50
0.0
 71
     0
 42
0.2
  3
txt
  4

  0
ENDTAB
  0
TABLE
  2
VIEW
  5
25E
330
0
100
AcDbSymbolTable
 70
     2
  0
VIEW
  5
2FD
330
25E
100
AcDbSymbolTableRecord
100
AcDbViewTableRecord
  2
iso
 70
     0
 40
31.98838985663352
 10
51.83034560108996
 20
19.37501964839725
 41
26.83005264415021
 11
0.0
 21
0.0
 31
1.0
 12
0.0
 22
0.0
 32
0.0
 42
50.0
 43
0.0
 44
0.0
 50
0.0
 71
     0
281
     0
 72
     0
 73
     0
  0
VIEW
  5
2FE
330
25E
100
AcDbSymbolTableRecord
100
AcDbViewTableRecord
  2
ortho
 70
     0
 40
52.84957516303053
 10
-1.761024049000753
 20
10.3982954155679
 41
41.18583576590975
 11
0.0
 21
0.0
 31
1.0
 12
0.0
 22
0.0
 32
0.0
 42
50.0
 43
0.0
 44
0.0
 50
0.0
 71
     0
281
     0
 72
     0
 73
     0
  0
ENDTAB
  0
TABLE
  2
UCS
  5
25F
330
0
100
AcDbSymbolTable
 70
     0
  0
ENDTAB
  0
TABLE
  2
APPID
  5
261
330
0
100
AcDbSymbolTable
 70
     2
  0
APPID
  5
26A
330
261
100
AcDbSymbolTableRecord
100
AcDbRegAppTableRecord
  2
ACAD
 70
     0
  0
APPID
  5
2B9
330
261
100
AcDbSymbolTableRecord
100
AcDbRegAppTableRecord
  2
QCAD
 70
     0
  0
ENDTAB
  0
TABLE
  2
DIMSTYLE
  5
262
330
0
100
AcDbSymbolTable
 70
     2
100
AcDbDimStyleTable
  0
DIMSTYLE
105
27E
330
262
100
AcDbSymbolTableRecord
100
AcDbDimStyleTableRecord
  2
Standard
 70
     0
178
     0
340
269
  0
DIMSTYLE
105
2E7
330
262
100
AcDbSymbolTableRecord
100
AcDbDimStyleTableRecord
  2
QCADDimStyle
 70
     0
 41
2.5
 42
0.625
 44
1.25
 73
     0
 77
     1
140
2.5
147
0.625
178
     0
340
269
  0
ENDTAB
  0
TABLE
  2
BLOCK_RECORD
  5
259
330
0
100
AcDbSymbolTable
 70
     1
  0
BLOCK_RECORD
  5
276
330
259
100
AcDbSymbolTableRecord
100
AcDbBlockTableRecord
  2
*Model_Space
340
279
 70
     0
280
     1
281
     0
  0
BLOCK_RECORD
  5
272
330
259
100
AcDbSymbolTableRecord
100
AcDbBlockTableRecord
  2
*Paper_Space
340
275
 70
     0
280
     1
281
     0
  0
BLOCK_RECORD
  5
27A
330
259
100
AcDbSymbolTableRecord
100
AcDbBlockTableRecord
  2
*Paper_Space0
340
27D
 70
     0
280
     1
281
     0
  0
ENDTAB
  0
ENDSEC
  0
SECTION
  2
BLOCKS
  0
BLOCK
  5
277
330
276
100
AcDbEntity
  8
0
100
AcDbBlockBegin
  2
*Model_Space
 70
     0
 10
0.0
 20
0.0
 30
0.0
  3
*Model_Space
  1

  0
ENDBLK
  5
278
330
276
100
AcDbEntity
  8
0
100
AcDbBlockEnd
  0
BLOCK
  5
273
330
272
100
AcDbEntity
 67
     1
  8
0
100
AcDbBlockBegin
  2
*Paper_Space
 70
     0
 10
0.0
 20
0.0
 30
0.0
  3
*Paper_Space
  1

  0
ENDBLK
  5
274
330
272
100
AcDbEntity
 67
     1
  8
0
100
AcDbBlockEnd
  0
BLOCK
  5
27B
330
27A
100
AcDbEntity
  8
0
100
AcDbBlockBegin
  2
*Paper_Space0
 70
     0
 10
0.0
 20
0.0
 30
0.0
  3
*Paper_Space0
  1

  0
ENDBLK
  5
27C
330
27A
100
AcDbEntity
  8
0
100
AcDbBlockEnd
  0
ENDSEC
  0
SECTION
  2
ENTITIES
  0
LINE
  5
A4
330
276
100
AcDbEntity
  8
aux
100
AcDbLine
 10
12.99050274466096
 20
-12.49992974346142
 30
0.0
 11
4.330005331027808
 21
-17.50007025653858
 31
0.0
  0
LINE
  5
A5
330
276
100
AcDbEntity
  8
aux
100
AcDbLine
 10
12.12445300329765
 20
2.000477744462348
 30
0.0
 11
5.196055072391123
 21
-1.999634665999382
 31
0.0
  0
LINE
  5
A7
330
276
100
AcDbEntity
  8
aux
100
AcDbLine
 10
4.330005331027808
 20
-10.49987353823056
 30
0.0
 11
12.99050274466096
 21
-5.499733025153395
 31
0.0
  0
LINE
  5
A8
330
276
100
AcDbEntity
  8
aux
100
AcDbLine
 10
2.597905848301176
 20
-13.49995784607685
 30
0.0
 11
14.7226022273876
 21
-6.499761127768828
 31
0.0
  0
LINE
  5
A9
330
276
100
AcDbEntity
  8
aux
100
AcDbLine
 10
4.330005331027808
 20
-14.49998594869228
 30
0.0
 11
12.99050274466096
 21
-9.499845435615123
 31
0.0
  0
LINE
  5
AA
330
276
100
AcDbEntity
  8
aux
100
AcDbLine
 10
10.39235352057102
 20
-1.499620614691665
 30
0.0
 11
6.928154555117754
 21
-3.499676819922531
 31
0.0
  0
ELLIPSE
  5
E1
330
276
100
AcDbEntity
  8
aux
100
AcDbEllipse
 10
8.660254037844384
 20
-7.999803281691976
 30
0.0
 11
-3.674337869777137
 21
4.499766111208475E-16
 31
0.0
210
0.0
220
0.0
230
1.0
 40
0.5773502691896258
 41
0.0
 42
6.283185307179586
  0
LINE
  5
EE
330
276
100
AcDbEntity
  8
aux
100
AcDbLine
 10
11.25840326193434
 20
1.500463693154631
 30
0.0
 11
11.25840326193434
 21
-3.499676819922514
 31
0.0
  0
LINE
  5
F0
330
276
100
AcDbEntity
  8
aux
100
AcDbLine
 10
14.7226022273876
 20
-2.999662768614804
 30
0.0
 11
7.794204296481074
 21
1.000449641846914
 31
0.0
  0
LINE
  5
160
330
276
100
AcDbEntity
  8
aux
100
AcDbLine
 10
-15.0
 20
-0.0000000000000008
 30
0.0
 11
-12.87867965644036
 21
-2.121320343559642
 31
0.0
  0
LINE
  5
161
330
276
100
AcDbEntity
  8
aux
100
AcDbLine
 10
-12.87867965644036
 20
-2.121320343559643
 30
0.0
 11
-12.87867965644034
 21
237.8786796564404
 31
0.0
  0
LINE
  5
162
330
276
100
AcDbEntity
  8
aux
100
AcDbLine
 10
-17.1213203435596
 20
-2.121320343559645
 30
0.0
 11
-17.12132034356005
 21
237.8786796564404
 31
0.0
  0
ELLIPSE
  5
191
330
276
100
AcDbEntity
  8
0
100
AcDbEllipse
 10
51.96152422706631
 20
28.0
 30
0.0
 11
-6.12389644962856
 21
7.499610185347457E-16
 31
0.0
210
0.0
220
0.0
230
1.0
 40
0.5773502691896258
 41
2.999695598985632
 42
4.854286034988852
  0
LINE
  5
192
330
276
100
AcDbEntity
  8
0
100
AcDbLine
 10
45.83762777743775
 20
28.0
 30
0.0
 11
45.83762777743775
 21
19.99977517907655
 31
0.0
  0
LINE
  5
193
330
276
100
AcDbEntity
  8
0
100
AcDbLine
 10
51.09547448570301
 20
31.50009835915401
 30
0.0
 11
51.09547448570301
 21
26.49995784607685
 31
0.0
  0
LINE
  5
194
330
276
100
AcDbEntity
  8
0
100
AcDbLine
 10
58.02387241660953
 20
27.4999859486923
 30
0.0
 11
58.02387241660953
 21
22.49984543561514
 31
0.0
  0
LINE
  5
195
330
276
100
AcDbEntity
  8
0
100
AcDbLine
 10
52.82757396842963
 20
24.49990164084599
 30
0.0
 11
52.82757396842963
 21
19.49976112776883
 31
0.0
  0
LINE
  5
196
330
276
100
AcDbEntity
  8
0
100
AcDbLine
 10
58.02387241660953
 20
22.49984543561514
 30
0.0
 11
51.095474485703
 21
26.49995784607687
 31
0.0
  0
ELLIPSE
  5
197
330
276
100
AcDbEntity
  8
0
100
AcDbEllipse
 10
51.96152422706631
 20
22.99985948692286
 30
0.0
 11
-6.12389644962856
 21
7.499610185347457E-16
 31
0.0
210
0.0
220
0.0
230
1.0
 40
0.5773502691896258
 41
4.854286034988852
 42
5.086270297714651
  0
LINE
  5
198
330
276
100
AcDbEntity
  8
0
100
AcDbLine
 10
58.08542067669488
 20
28.0
 30
0.0
 11
58.08542067669487
 21
19.99977517907654
 31
0.0
  0
ELLIPSE
  5
199
330
276
100
AcDbEntity
  8
0
100
AcDbEllipse
 10
54.55967345115627
 20
26.99997189738458
 30
0.0
 11
0.9185844674442829
 21
-1.5910349686571
 31
0.0
210
0.0
220
0.0
230
1.0
 40
0.5773502691896257
 41
0.0
 42
6.283185307179586
  0
ELLIPSE
  5
19A
330
276
100
AcDbEntity
  8
0
100
AcDbEllipse
 10
51.96152422706631
 20
9.999494152922221
 30
0.0
 11
-3.674337869777137
 21
4.499766111208475E-16
 31
0.0
210
0.0
220
0.0
230
1.0
 40
0.5773502691896258
 41
0.0
 42
3.141592653589793
  0
ELLIPSE
  5
19B
330
276
100
AcDbEntity
  8
0
100
AcDbEllipse
 10
51.96152422706631
 20
19.99977517907655
 30
0.0
 11
-6.12389644962856
 21
7.499610185347457E-16
 31
0.0
210
0.0
220
0.0
230
1.0
 40
0.5773502691896258
 41
0.0
 42
3.141592653589793
  0
LINE
  5
19C
330
276
100
AcDbEntity
  8
0
100
AcDbLine
 10
55.63586209684345
 20
17.17126856813059
 30
0.0
 11
55.63586209684345
 21
9.999494152922221
 31
0.0
  0
LINE
  5
19D
330
276
100
AcDbEntity
  8
0
100
AcDbLine
 10
48.28718635728918
 20
17.17126856813059
 30
0.0
 11
48.28718635728918
 21
9.999494152922221
 31
0.0
  0
LINE
  5
19E
330
276
100
AcDbEntity
  8
center
100
AcDbLine
 10
51.96152422706631
 20
10.0
 30
0.0
 11
51.96152422706631
 21
28.0
 31
0.0
  0
LWPOLYLINE
  5
19F
330
276
100
AcDbEntity
  8
0
100
AcDbPolyline
 90
        2
 70
     0
 43
0.0
 10
43.30127018922193
 20
27.99957846076852
 10
43.30127018922193
 20
27.99957846076852
  0
LWPOLYLINE
  5
1A0
330
276
100
AcDbEntity
  8
0
100
AcDbPolyline
 90
      127
 70
     0
 43
0.0
 10
51.96152422706632
 20
10.87870444554902
 10
52.08362467325687
 20
10.88236212775857
 10
52.20542148715356
 20
10.89332152453996
 10
52.32661206887426
 20
10.91154120950093
 10
52.44689485094862
 20
10.93695078757777
 10
52.56597084693561
 20
10.96945250440596
 10
52.68354427087062
 20
11.00892136553285
 10
52.79932253726545
 20
11.05520370586592
 10
52.91301801620826
 20
11.10811891825612
 10
53.02434782688125
 20
11.16745742688297
 10
53.13303548941941
 20
11.23298307150731
 10
53.23881030546351
 20
11.30443251140818
 10
53.34140962946594
 20
11.38151391404374
 10
53.44057845572592
 20
11.46391100828101
 10
53.53607014107791
 20
11.55127849470925
 10
53.62764712757961
 20
11.64324699296454
 10
53.71508197492387
 20
11.7394217303907
 10
53.79815715395627
 20
11.83938385337833
 10
53.8766662339486
 20
11.94269397394087
 10
53.95041383097839
 20
12.04889070935975
 10
54.01921695006399
 20
12.15749455659515
 10
54.08290410761479
 20
12.26801286941374
 10
54.14131747368543
 20
12.37994061836926
 10
54.19431129754798
 20
12.49276615771394
 10
54.24175404994627
 20
12.60597675388466
 10
54.28352785526945
 20
12.71906302617382
 10
54.31952869803434
 20
12.83152788767726
 10
54.34966717138391
 20
12.94289007696872
 10
54.37386854161306
 20
13.05269349393974
 10
54.39207228358331
 20
13.16051408432953
 10
54.40423334542718
 20
13.26596462313213
 10
54.41032137423939
 20
13.36870142030746
 10
54.41032137423941
 20
13.46842708502437
 10
54.40423334542717
 20
13.56489341656709
 10
54.39207228358331
 20
13.65790283488701
 10
54.37386854161306
 20
13.74730548969609
 10
54.34966717138392
 20
13.83299864205133
 10
54.31952869803434
 20
13.91492019706906
 10
54.28352785526945
 20
13.99304558949472
 10
54.24175404994627
 20
14.06738185287404
 10
54.19431129754798
 20
14.13796066796602
 10
54.14131747368543
 20
14.20483435421787
 10
54.08290410761479
 20
14.2680690746446
 10
54.01921695006399
 20
14.32774063358345
 10
53.95041383097838
 20
14.38393085560994
 10
53.8766662339486
 20
14.43672348760343
 10
53.79815715395626
 20
14.48620176978956
 10
53.71508197492387
 20
14.53244727341698
 10
53.62764712757961
 20
14.57553674162248
 10
53.53607014107791
 20
14.61554235765936
 10
53.44057845572593
 20
14.65253058257422
 10
53.34140962946593
 20
14.68656203599432
 10
53.23881030546351
 20
14.71769185376549
 10
53.13303548941941
 20
14.74596807858152
 10
53.02434782688125
 20
14.77143410384322
 10
52.91301801620826
 20
14.79412724310682
 10
52.79932253726545
 20
14.81408004142293
 10
52.68354427087062
 20
14.83132015612395
 10
52.56597084693561
 20
14.84587059524933
 10
52.44689485094862
 20
14.85775079045933
 10
52.32661206887427
 20
14.86697558372759
 10
52.20542148715356
 20
14.8735566578928
 10
52.08362467325687
 20
14.87750194059548
 10
51.96152422706631
 20
14.87881685601075
 10
51.83942378087577
 20
14.87750194059548
 10
51.71762696697908
 20
14.8735566578928
 10
51.59643638525836
 20
14.86697558372759
 10
51.47615360318401
 20
14.85775079045933
 10
51.35707760719702
 20
14.84587059524933
 10
51.23950418326201
 20
14.83132015612395
 10
51.12372591686719
 20
14.81408004142293
 10
51.01003043792438
 20
14.79412724310682
 10
50.89870062725139
 20
14.77143410384322
 10
50.79001296471323
 20
14.74596807858152
 10
50.68423814866912
 20
14.71769185376549
 10
50.5816388246667
 20
14.68656203599432
 10
50.48246999840671
 20
14.65253058257422
 10
50.38697831305473
 20
14.61554235765936
 10
50.29540132655302
 20
14.57553674162248
 10
50.20796647920876
 20
14.53244727341698
 10
50.12489130017637
 20
14.48620176978956
 10
50.04638222018402
 20
14.43672348760343
 10
49.97263462315425
 20
14.38393085560994
 10
49.90383150406864
 20
14.32774063358345
 10
49.84014434651785
 20
14.2680690746446
 10
49.78173098044721
 20
14.20483435421787
 10
49.72873715658466
 20
14.13796066796602
 10
49.68129440418637
 20
14.06738185287404
 10
49.63952059886318
 20
13.99304558949471
 10
49.60351975609829
 20
13.91492019706906
 10
49.57338128274872
 20
13.83299864205133
 10
49.54917991251957
 20
13.74730548969609
 10
49.53097617054933
 20
13.65790283488701
 10
49.51881510870546
 20
13.56489341656709
 10
49.51272707989323
 20
13.46842708502437
 10
49.51272707989323
 20
13.36870142030747
 10
49.51881510870546
 20
13.26596462313213
 10
49.53097617054933
 20
13.16051408432953
 10
49.54917991251958
 20
13.05269349393975
 10
49.57338128274872
 20
12.94289007696872
 10
49.60351975609829
 20
12.83152788767725
 10
49.63952059886318
 20
12.71906302617382
 10
49.68129440418637
 20
12.60597675388466
 10
49.72873715658466
 20
12.49276615771394
 10
49.78173098044721
 20
12.37994061836926
 10
49.84014434651785
 20
12.26801286941374
 10
49.90383150406864
 20
12.15749455659515
 10
49.97263462315425
 20
12.04889070935975
 10
50.04638222018403
 20
11.94269397394088
 10
50.12489130017637
 20
11.83938385337833
 10
50.20796647920876
 20
11.7394217303907
 10
50.29540132655303
 20
11.64324699296454
 10
50.38697831305473
 20
11.55127849470925
 10
50.48246999840671
 20
11.46391100828101
 10
50.5816388246667
 20
11.38151391404374
 10
50.68423814866912
 20
11.30443251140818
 10
50.79001296471323
 20
11.23298307150731
 10
50.89870062725139
 20
11.16745742688297
 10
51.01003043792438
 20
11.10811891825612
 10
51.12372591686719
 20
11.05520370586592
 10
51.23950418326201
 20
11.00892136553285
 10
51.35707760719703
 20
10.96945250440596
 10
51.47615360318401
 20
10.93695078757777
 10
51.59643638525836
 20
10.91154120950094
 10
51.71762696697908
 20
10.89332152453996
 10
51.83942378087577
 20
10.88236212775857
 10
51.96152422706632
 20
10.87870444554902
  0
LWPOLYLINE
  5
1A1
330
276
100
AcDbEntity
  8
0
100
AcDbPolyline
 90
        2
 70
     0
 43
0.0
 10
43.30127018922193
 20
27.99957846076852
 10
43.30127018922193
 20
27.99957846076852
  0
LWPOLYLINE
  5
1A2
330
276
100
AcDbEntity
  8
center
100
AcDbPolyline
 90
        2
 70
     0
 43
0.0
 10
43.30127018922193
 20
27.99957846076852
 10
43.30127018922193
 20
27.99957846076852
  0
LWPOLYLINE
  5
1A3
330
276
100
AcDbEntity
  8
0
100
AcDbPolyline
 90
        2
 70
     0
 43
0.0
 10
43.30127018922193
 20
27.99957846076852
 10
43.30127018922193
 20
27.99957846076852
  0
LINE
  5
1A4
330
276
100
AcDbEntity
  8
0
100
AcDbLine
 10
58.02387241660953
 20
27.49998594869229
 30
0.0
 11
51.095474485703
 21
31.50009835915402
 31
0.0
  0
LWPOLYLINE
  5
1A5
330
276
100
AcDbEntity
  8
center
100
AcDbPolyline
 90
        2
 70
     0
 43
0.0
 10
43.30127018922193
 20
27.99957846076852
 10
43.30127018922193
 20
27.99957846076852
  0
LINE
  5
1A6
330
276
100
AcDbEntity
  8
0
100
AcDbLine
 10
52.82757396842963
 20
24.49990164084599
 30
0.0
 11
45.89917603752311
 21
28.50001405130772
 31
0.0
  0
LWPOLYLINE
  5
1A7
330
276
100
AcDbEntity
  8
0
100
AcDbPolyline
 90
        2
 70
     0
 43
0.0
 10
43.30127018922193
 20
27.99957846076852
 10
43.30127018922193
 20
27.99957846076852
  0
ELLIPSE
  5
1A8
330
276
100
AcDbEntity
  8
0
100
AcDbEllipse
 10
51.96152422706631
 20
22.99985948692284
 30
0.0
 11
-6.12389644962856
 21
7.499610185347457E-16
 31
0.0
210
0.0
220
0.0
230
1.0
 40
0.5773502691896258
 41
1.712693381399061
 42
2.999695598985632
  0
ELLIPSE
  5
1A9
330
276
100
AcDbEntity
  8
0
100
AcDbEllipse
 10
51.96152422706631
 20
28.0
 30
0.0
 11
-6.12389644962856
 21
7.499610185347457E-16
 31
0.0
210
0.0
220
0.0
230
1.0
 40
0.5773502691896258
 41
6.141288252575425
 42
7.995878688578646
  0
LWPOLYLINE
  5
1AC
330
276
100
AcDbEntity
  8
0
100
AcDbPolyline
 90
       96
 70
     0
 43
0.0
 10
47.63127552024973
 20
21.49981733299969
 10
47.71798324000281
 20
21.45401893637725
 10
47.80600414877861
 20
21.41595746242005
 10
47.89492315253036
 20
21.38578148733103
 10
47.98430117944858
 20
21.36359406298638
 10
48.07367765774918
 20
21.3494517632344
 10
48.16257411620948
 20
21.34336641992957
 10
48.25049662324094
 20
21.3453032378827
 10
48.33693973586408
 20
21.35518423712588
 10
48.42139055192454
 20
21.37288829761724
 10
48.50333147179457
 20
21.39825218744993
 10
48.58224582501695
 20
21.43107399021557
 10
48.65762370343142
 20
21.4711145057527
 10
48.72896335493046
 20
21.51809930656487
 10
48.7957802170621
 20
21.57172377455464
 10
48.85760970454162
 20
21.63165363748043
 10
48.9140122164485
 20
21.69752875395789
 10
48.96457953717922
 20
21.76896823960335
 10
49.0089408244354
 20
21.84557320892458
 10
49.04676322867081
 20
21.92692832508503
 10
49.07776180424417
 20
22.01260895266233
 10
49.10169888997205
 20
22.10218127686078
 10
49.11838978739346
 20
22.19520772768659
 10
49.12770461911104
 20
22.29124841049946
 10
49.12957132278508
 20
22.389865457274
 10
49.12397513492761
 20
22.49062380148181
 10
49.1109594168319
 20
22.59309356234435
 10
49.09062575781354
 20
22.69685272711726
 10
49.0631318071458
 20
22.80148709148413
 10
49.02868817682444
 20
22.90659145168279
 10
48.98755761563825
 20
23.01177079663179
 10
48.94004933090451
 20
23.11663995029243
 10
48.88651527178671
 20
23.22082369088144
 10
48.82734641261222
 20
23.32395681047728
 10
48.76296686812542
 20
23.42568405541379
 10
48.69382883467011
 20
23.52565899376019
 10
48.6204086670249
 20
23.6235449690221
 10
48.54319903207394
 20
23.71901301392045
 10
48.4627070504658
 20
23.81174366838414
 10
48.37944650190479
 20
23.90142466980522
 10
48.29393519250106
 20
23.98775280083473
 10
48.20668829571476
 20
24.07043196707897
 10
48.1182160810503
 20
24.14917509705089
 10
48.02901911334166
 20
24.22370340454189
 10
47.93958309069373
 20
24.29374631783932
 10
47.85037840570731
 20
24.35904330703274
 10
47.76185508666152
 20
24.41934345745615
 10
47.67444039393027
 20
24.4744063072616
 10
47.58853682613704
 20
24.52400275525137
 10
47.5045200069371
 20
24.56791593500697
 10
47.42273709768447
 20
24.60594213133633
 10
47.34350551014349
 20
24.6378918694279
 10
47.2671117385731
 20
24.66359083246208
 10
47.19381060800195
 20
24.68288084575572
 10
47.12382682284608
 20
24.69562232993477
 10
47.05735287627515
 20
24.70169393398289
 10
46.99455049558883
 20
24.70099475185138
 10
46.93555327486676
 20
24.6934463118202
 10
46.88046522959213
 20
24.67899282237401
 10
46.82936570060746
 20
24.65760410781339
 10
46.78230837332344
 20
24.62927584668017
 10
46.73932752380995
 20
24.59403277559705
 10
46.70043698638436
 20
24.55192854025189
 10
46.66563634808197
 20
24.50304873531994
 10
46.63491198106777
 20
24.44751161973973
 10
46.60824189497162
 20
24.38546936844577
 10
46.58559811143525
 20
24.31711015858974
 10
46.56695038079457
 20
24.24265810993416
 10
46.55226824690313
 20
24.1623741193409
 10
46.5415252800203
 20
24.07655705289754
 10
46.53469990274063
 20
23.985542553791
 10
46.53177724833501
 20
23.88970256545696
 10
46.53275112233297
 20
23.78944551039885
 10
46.53762410576387
 20
23.68521348869078
 10
46.54640590329811
 20
23.57748037057534
 10
46.55911530482943
 20
23.46675018709294
 10
46.5757765720338
 20
23.35355313645839
 10
46.59641881892239
 20
23.23844343823341
 10
46.62107177895344
 20
23.12199307466299
 10
46.64976601151456
 20
23.00479190988809
 10
46.6825262944876
 20
22.88743862978501
 10
46.71937059183691
 20
22.77053943062633
 10
46.76030695637408
 20
22.65470360821328
 10
46.80532919362866
 20
22.54053723960579
 10
46.85441278382172
 20
22.42863886166436
 10
46.90751519158943
 20
22.31959714640355
 10
46.96456920692726
 20
22.21398449331262
 10
47.02548351301645
 20
22.11235384041737
 10
47.09014026005647
 20
22.01523529652315
 10
47.15839160668559
 20
21.9231314621187
 10
47.23006000389416
 20
21.83651464278072
 10
47.30493729166433
 20
21.75582498647633
 10
47.3827836923686
 20
21.68146534251806
 10
47.46332859798376
 20
21.61380128391615
 10
47.54627004097988
 20
21.55315759805654
 10
47.63127552024972
 20
21.49981733299969
  0
ELLIPSE
  5
1AE
330
276
100
AcDbEntity
  8
0
100
AcDbEllipse
 10
49.36337500297638
 20
23.99988758953829
 30
0.0
 11
0.9185844674442829
 21
-1.5910349686571
 31
0.0
210
0.0
220
0.0
230
1.0
 40
0.5773502691896257
 41
4.327536722953363
 42
5.287379178455552
  0
LWPOLYLINE
  5
212
330
276
100
AcDbEntity
  8
0
100
AcDbPolyline
 90
       16
 70
     0
 43
0.0
 10
55.75612897287256
 20
26.89353695933922
 10
55.67255183089167
 20
26.97029292724101
 10
55.58610871826853
 20
27.05483310710115
 10
55.50165790220807
 20
27.1428749496287
 10
55.41971698233804
 20
27.23411914168868
 10
55.34080262911566
 20
27.32825832329292
 10
55.26542475070119
 20
27.42497568685157
 10
55.19408509920216
 20
27.52394768926065
 10
55.12726823707052
 20
27.62484139942078
 10
55.06543874959099
 20
27.72731539233202
 10
55.00903623768411
 20
27.8310188251959
 10
54.95846891695339
 20
27.93559155662808
 10
54.91410762969722
 20
28.04066331216979
 10
54.8762852254618
 20
28.14585404192588
 10
54.84528664988844
 20
28.25077344371413
 10
54.83176821539165
 20
28.30964728126181
  0
LINE
  5
21B
330
276
100
AcDbEntity
  8
hidden
100
AcDbLine
 10
-7.87867965644036
 20
16.99810338553125
 30
0.0
 11
-12.12132034355964
 21
17.0
 31
0.0
  0
LINE
  5
21D
330
276
100
AcDbEntity
  8
hidden
100
AcDbLine
 10
-7.87867965644036
 20
13.0
 30
0.0
 11
-12.12132034355963
 21
13.0
 31
0.0
  0
CIRCLE
  5
21F
330
276
100
AcDbEntity
  8
0
100
AcDbCircle
 10
-10.0
 20
-2.0
 30
0.0
 40
5.0
  0
LINE
  5
220
330
276
100
AcDbEntity
  8
0
100
AcDbLine
 10
-13.0
 20
2.000000000000001
 30
0.0
 11
-13.0
 21
-6.0
 31
0.0
  0
LINE
  5
221
330
276
100
AcDbEntity
  8
center
100
AcDbLine
 10
-10.0
 20
-9.0
 30
0.0
 11
-10.0
 21
5.0
 31
0.0
  0
LWPOLYLINE
  5
222
330
276
100
AcDbEntity
  8
0
100
AcDbPolyline
 90
       11
 70
     0
 43
0.0
 10
-15.0
 20
24.0
 10
-14.97846804937742
 20
24.07341522555727
 10
-14.92165054820757
 20
24.28647450843759
 10
-14.85050058048942
 20
24.61832212156129
 10
-14.79216609492286
 20
25.03647450843757
 10
-14.76969600708473
 20
25.50000000000001
 10
-14.79216609492286
 20
25.96352549156243
 10
-14.85050058048942
 20
26.38167787843871
 10
-14.92165054820757
 20
26.71352549156242
 10
-14.97846804937742
 20
26.92658477444273
 10
-15.0
 20
27.0
  0
LINE
  5
223
330
276
100
AcDbEntity
  8
center
100
AcDbLine
 10
-3.0
 20
-2.000000000000002
 30
0.0
 11
-17.0
 21
-2.0
 31
0.0
  0
LWPOLYLINE
  5
224
330
276
100
AcDbEntity
  8
0
100
AcDbPolyline
 90
       11
 70
     0
 43
0.0
 10
-5.0
 20
27.0
 10
-5.021531950622579
 20
26.92658477444273
 10
-5.078349451792439
 20
26.71352549156242
 10
-5.14949941951058
 20
26.38167787843871
 10
-5.207833905077139
 20
25.96352549156242
 10
-5.230303992915269
 20
25.5
 10
-5.207833905077139
 20
25.03647450843758
 10
-5.14949941951058
 20
24.61832212156129
 10
-5.07834945179243
 20
24.28647450843758
 10
-5.021531950622579
 20
24.07341522555727
 10
-5.0
 20
24.0
  0
LINE
  5
225
330
276
100
AcDbEntity
  8
0
100
AcDbLine
 10
-7.0
 20
2.0
 30
0.0
 11
-7.0
 21
-6.0
 31
0.0
  0
LWPOLYLINE
  5
227
330
276
100
AcDbEntity
  8
0
100
AcDbPolyline
 90
       27
 70
     0
 43
0.0
 10
12.12132034355964
 20
13.0
 10
12.43259150104082
 20
13.0581163651479
 10
12.6741622210918
 20
13.22908794869358
 10
12.84056784705805
 20
13.5029785036578
 10
12.93740112527191
 20
13.86387050653769
 10
12.98107401216823
 20
14.29079022591493
 10
12.99420363996723
 20
14.75892663948935
 10
12.99420363996723
 20
15.24107336051064
 10
12.98107401216824
 20
15.70920977408507
 10
12.93740112527191
 20
16.13612949346231
 10
12.84056784705805
 20
16.4970214963422
 10
12.6741622210918
 20
16.77091205130642
 10
12.43259150104082
 20
16.9418836348521
 10
12.12132034355964
 20
17.0
 10
11.75570458479324
 20
16.9418836348521
 10
11.35972659578512
 20
16.77091205130642
 10
10.96497373345599
 20
16.4970214963422
 10
10.60965123574982
 20
16.13612949346231
 10
10.33644870927854
 20
15.70920977408507
 10
10.18639893349205
 20
15.24107336051065
 10
10.18639893349205
 20
14.75892663948936
 10
10.33644870927854
 20
14.29079022591493
 10
10.60965123574982
 20
13.86387050653769
 10
10.96497373345599
 20
13.5029785036578
 10
11.35972659578511
 20
13.22908794869358
 10
11.75570458479324
 20
13.0581163651479
 10
12.12132034355964
 20
13.0
  0
LINE
  5
228
330
276
100
AcDbEntity
  8
0
100
AcDbLine
 10
-13.0
 20
10.0
 30
0.0
 11
-13.0
 21
20.0
 31
0.0
  0
LWPOLYLINE
  5
229
330
276
100
AcDbEntity
  8
hidden
100
AcDbPolyline
 90
       27
 70
     0
 43
0.0
 10
7.878679656440358
 20
13.0
 10
8.244295415206764
 20
13.0581163651479
 10
8.640273404214888
 20
13.22908794869358
 10
9.035026266544008
 20
13.5029785036578
 10
9.390348764250184
 20
13.86387050653769
 10
9.663551290721461
 20
14.29079022591493
 10
9.813601066507953
 20
14.75892663948935
 10
9.813601066507953
 20
15.24107336051065
 10
9.663551290721461
 20
15.70920977408507
 10
9.39034876425018
 20
16.13612949346231
 10
9.035026266544016
 20
16.4970214963422
 10
8.640273404214888
 20
16.77091205130642
 10
8.244295415206768
 20
16.94188363485211
 10
7.878679656440362
 20
17.0
 10
7.567408498959182
 20
16.9418836348521
 10
7.325837778908202
 20
16.77091205130642
 10
7.15943215294195
 20
16.4970214963422
 10
7.062598874728085
 20
16.13612949346231
 10
7.018925987831764
 20
15.70920977408507
 10
7.005796360032768
 20
15.24107336051065
 10
7.005796360032768
 20
14.75892663948936
 10
7.018925987831764
 20
14.29079022591493
 10
7.062598874728085
 20
13.86387050653769
 10
7.159432152941946
 20
13.5029785036578
 10
7.325837778908202
 20
13.22908794869358
 10
7.567408498959182
 20
13.0581163651479
 10
7.878679656440358
 20
13.0
  0
LINE
  5
22A
330
276
100
AcDbEntity
  8
0
100
AcDbLine
 10
-5.0
 20
20.0
 30
0.0
 11
-15.0
 21
20.0
 31
0.0
  0
LINE
  5
22B
330
276
100
AcDbEntity
  8
0
100
AcDbLine
 10
-7.0
 20
20.0
 30
0.0
 11
-7.0
 21
10.0
 31
0.0
  0
LINE
  5
22C
330
276
100
AcDbEntity
  8
0
100
AcDbLine
 10
-7.0
 20
10.0
 30
0.0
 11
-13.0
 21
10.0
 31
0.0
  0
LINE
  5
22D
330
276
100
AcDbEntity
  8
0
100
AcDbLine
 10
15.0
 20
20.0
 30
0.0
 11
5.0
 21
20.0
 31
0.0
  0
LINE
  5
22E
330
276
100
AcDbEntity
  8
0
100
AcDbLine
 10
13.0
 20
10.0
 30
0.0
 11
7.0
 21
10.0
 31
0.0
  0
LINE
  5
22F
330
276
100
AcDbEntity
  8
0
100
AcDbLine
 10
5.0
 20
20.0
 30
0.0
 11
5.0
 21
23.0
 31
0.0
  0
LINE
  5
230
330
276
100
AcDbEntity
  8
hidden
100
AcDbLine
 10
7.914229995531343
 20
17.0
 30
0.0
 11
12.15507021240315
 21
17.0
 31
0.0
  0
LINE
  5
231
330
276
100
AcDbEntity
  8
0
100
AcDbLine
 10
15.0
 20
23.0
 30
0.0
 11
15.0
 21
20.0
 31
0.0
  0
LINE
  5
232
330
276
100
AcDbEntity
  8
0
100
AcDbLine
 10
7.0
 20
10.0
 30
0.0
 11
7.0
 21
20.0
 31
0.0
  0
LINE
  5
233
330
276
100
AcDbEntity
  8
0
100
AcDbLine
 10
13.0
 20
20.0
 30
0.0
 11
13.0
 21
10.0
 31
0.0
  0
CIRCLE
  5
234
330
276
100
AcDbEntity
  8
hidden
100
AcDbCircle
 10
-10.0
 20
-2.0
 30
0.0
 40
3.0
  0
LINE
  5
235
330
276
100
AcDbEntity
  8
hidden
100
AcDbLine
 10
-9.83307473228891
 20
0.9953523924572849
 30
0.0
 11
-12.99535239245728
 21
-2.166925267711095
 31
0.0
  0
LINE
  5
236
330
276
100
AcDbEntity
  8
hidden
100
AcDbLine
 10
-7.00464760754272
 20
-1.833074732288907
 30
0.0
 11
-10.16692526771109
 21
-4.995352392457285
 31
0.0
  0
LINE
  5
237
330
276
100
AcDbEntity
  8
center
100
AcDbLine
 10
-17.0
 20
25.5
 30
0.0
 11
-3.0
 21
25.5
 31
0.0
  0
LINE
  5
238
330
276
100
AcDbEntity
  8
0
100
AcDbLine
 10
-15.0
 20
28.0
 30
0.0
 11
-13.0
 21
28.0
 31
0.0
  0
LINE
  5
239
330
276
100
AcDbEntity
  8
0
100
AcDbLine
 10
-7.0
 20
28.0
 30
0.0
 11
-7.0
 21
23.0
 31
0.0
  0
LINE
  5
23A
330
276
100
AcDbEntity
  8
0
100
AcDbLine
 10
-13.0
 20
23.0
 30
0.0
 11
-7.0
 21
23.0
 31
0.0
  0
LINE
  5
23B
330
276
100
AcDbEntity
  8
0
100
AcDbLine
 10
-13.0
 20
23.0
 30
0.0
 11
-13.0
 21
28.0
 31
0.0
  0
LINE
  5
23C
330
276
100
AcDbEntity
  8
hidden
100
AcDbLine
 10
7.914229995531343
 20
13.0
 30
0.0
 11
12.15507021240315
 21
13.0
 31
0.0
  0
LINE
  5
23D
330
276
100
AcDbEntity
  8
0
100
AcDbLine
 10
-7.0
 20
28.0
 30
0.0
 11
-5.0
 21
28.0
 31
0.0
  0
CIRCLE
  5
23E
330
276
100
AcDbEntity
  8
0
100
AcDbCircle
 10
10.0
 20
25.5
 30
0.0
 40
1.5
  0
LINE
  5
23F
330
276
100
AcDbEntity
  8
center
100
AcDbLine
 10
-10.0
 20
30.0
 30
0.0
 11
-10.0
 21
8.0
 31
0.0
  0
LINE
  5
240
330
276
100
AcDbEntity
  8
hidden
100
AcDbLine
 10
-13.0
 20
27.0
 30
0.0
 11
-15.0
 21
27.0
 31
0.0
  0
LINE
  5
241
330
276
100
AcDbEntity
  8
center
100
AcDbLine
 10
-15.0
 20
15.0
 30
0.0
 11
-5.0
 21
15.0
 31
0.0
  0
LINE
  5
242
330
276
100
AcDbEntity
  8
hidden
100
AcDbLine
 10
-13.0
 20
24.0
 30
0.0
 11
-15.0
 21
24.0
 31
0.0
  0
LINE
  5
243
330
276
100
AcDbEntity
  8
0
100
AcDbLine
 10
14.0
 20
28.0
 30
0.0
 11
6.0
 21
28.0
 31
0.0
  0
LINE
  5
244
330
276
100
AcDbEntity
  8
hidden
100
AcDbLine
 10
-5.0
 20
27.0
 30
0.0
 11
-7.0
 21
27.0
 31
0.0
  0
LINE
  5
245
330
276
100
AcDbEntity
  8
0
100
AcDbLine
 10
6.0
 20
23.0
 30
0.0
 11
6.0
 21
28.0
 31
0.0
  0
LINE
  5
246
330
276
100
AcDbEntity
  8
hidden
100
AcDbLine
 10
-5.0
 20
24.0
 30
0.0
 11
-7.0
 21
24.0
 31
0.0
  0
LINE
  5
247
330
276
100
AcDbEntity
  8
center
100
AcDbLine
 10
10.0
 20
8.0
 30
0.0
 11
10.0
 21
30.0
 31
0.0
  0
LINE
  5
248
330
276
100
AcDbEntity
  8
0
100
AcDbLine
 10
-5.0
 20
28.0
 30
0.0
 11
-5.0
 21
27.0
 31
0.0
  0
LINE
  5
249
330
276
100
AcDbEntity
  8
0
100
AcDbLine
 10
14.0
 20
23.0
 30
0.0
 11
14.0
 21
28.0
 31
0.0
  0
LINE
  5
24A
330
276
100
AcDbEntity
  8
0
100
AcDbLine
 10
-5.0
 20
24.0
 30
0.0
 11
-5.0
 21
20.0
 31
0.0
  0
LINE
  5
24B
330
276
100
AcDbEntity
  8
center
100
AcDbLine
 10
5.0
 20
15.0
 30
0.0
 11
15.0
 21
15.0
 31
0.0
  0
LINE
  5
24C
330
276
100
AcDbEntity
  8
0
100
AcDbLine
 10
-15.0
 20
20.0
 30
0.0
 11
-15.0
 21
24.0
 31
0.0
  0
LINE
  5
24D
330
276
100
AcDbEntity
  8
center
100
AcDbLine
 10
12.0
 20
25.5
 30
0.0
 11
8.0
 21
25.5
 31
0.0
  0
LINE
  5
24E
330
276
100
AcDbEntity
  8
0
100
AcDbLine
 10
-15.0
 20
27.0
 30
0.0
 11
-15.0
 21
28.0
 31
0.0
  0
LINE
  5
24F
330
276
100
AcDbEntity
  8
0
100
AcDbLine
 10
5.0
 20
23.0
 30
0.0
 11
6.0
 21
23.0
 31
0.0
  0
LWPOLYLINE
  5
250
330
276
100
AcDbEntity
  8
hidden
100
AcDbPolyline
 90
       64
 70
     0
 43
0.0
 10
-7.00464760754272
 20
15.0
 10
-7.00541752535622
 20
15.19913569319164
 10
-7.00804852423315
 20
15.3962922863988
 10
-7.01345200305531
 20
15.58951034882181
 10
-7.022989022248289
 20
15.77686959254939
 10
-7.038282238876141
 20
15.95650795724264
 10
-7.061025103556499
 20
16.12664011612724
 10
-7.092820668520609
 20
16.28557521937308
 10
-7.13506414426273
 20
16.43173369851944
 10
-7.188868703007479
 20
16.56366296493606
 10
-7.2550262908613
 20
16.68005184630155
 10
-7.333993228912449
 20
16.77974361762294
 10
-7.425891586673741
 20
16.86174749728841
 10
-7.53051959591971
 20
16.92524849390002
 10
-7.64736658061361
 20
16.96961550602442
 10
-7.77562957966235
 20
16.99440759436236
 10
-7.91422999553134
 20
16.99937836400163
 10
-8.06182932790283
 20
16.98447841320034
 10
-8.21684349425988
 20
16.94985582436365
 10
-8.37745553409993
 20
16.89585469233426
 10
-8.54162676075826
 20
16.82301170462335
 10
-8.70710678118655
 20
16.73205080756887
 10
-8.87144337655126
 20
16.62387601143171
 10
-9.03199416849863
 20
16.49956240593547
 10
-9.18594342711788
 20
16.36034547554184
 10
-9.33032936686683
 20
16.20760882065095
 10
-9.4620896299276
 20
16.042870406759
 10
-9.57813462181245
 20
15.86776747823512
 10
-9.67545831190402
 20
15.68404028665134
 10
-9.75129157092129
 20
15.49351479538058
 10
-9.80329189063201
 20
15.29808453235235
 10
-9.82974612670482
 20
15.09969177132139
 10
-9.82974612670482
 20
14.9003082286786
 10
-9.80329189063201
 20
14.70191546764765
 10
-9.75129157092129
 20
14.50648520461941
 10
-9.67545831190402
 20
14.31595971334866
 10
-9.57813462181245
 20
14.13223252176488
 10
-9.4620896299276
 20
13.957129593241
 10
-9.33032936686683
 20
13.79239117934905
 10
-9.18594342711788
 20
13.63965452445816
 10
-9.03199416849863
 20
13.50043759406453
 10
-8.87144337655126
 20
13.37612398856829
 10
-8.70710678118655
 20
13.26794919243112
 10
-8.54162676075826
 20
13.17698829537665
 10
-8.37745553409993
 20
13.10414530766574
 10
-8.21684349425988
 20
13.05014417563635
 10
-8.06182932790283
 20
13.01552158679966
 10
-7.91422999553135
 20
13.00062163599837
 10
-7.77562957966234
 20
13.00559240563764
 10
-7.64736658061361
 20
13.03038449397558
 10
-7.53051959591971
 20
13.07475150609998
 10
-7.425891586673741
 20
13.13825250271159
 10
-7.333993228912449
 20
13.22025638237706
 10
-7.2550262908613
 20
13.31994815369846
 10
-7.188868703007479
 20
13.43633703506394
 10
-7.13506414426273
 20
13.56826630148056
 10
-7.092820668520609
 20
13.71442478062692
 10
-7.061025103556499
 20
13.87335988387276
 10
-7.038282238876141
 20
14.04349204275736
 10
-7.022989022248289
 20
14.22313040745061
 10
-7.01345200305531
 20
14.41048965117819
 10
-7.00804852423315
 20
14.6037077136012
 10
-7.00541752535622
 20
14.80086430680837
 10
-7.00464760754272
 20
15.0
  0
LINE
  5
251
330
276
100
AcDbEntity
  8
0
100
AcDbLine
 10
14.0
 20
23.0
 30
0.0
 11
15.0
 21
23.0
 31
0.0
  0
LWPOLYLINE
  5
252
330
276
100
AcDbEntity
  8
0
100
AcDbPolyline
 90
       64
 70
     0
 43
0.0
 10
-10.1669252677111
 20
15.0
 10
-10.18021043964304
 20
15.19913569319164
 10
-10.21960502420608
 20
15.3962922863988
 10
-10.28377995338935
 20
15.58951034882181
 10
-10.37068266528908
 20
15.77686959254939
 10
-10.47773204146623
 20
15.95650795724264
 10
-10.60201873565109
 20
16.12664011612724
 10
-10.74047844980058
 20
16.28557521937308
 10
-10.89002389996615
 20
16.43173369851944
 10
-11.04763582941265
 20
16.56366296493606
 10
-11.21042113999108
 20
16.68005184630155
 10
-11.37564817323157
 20
16.77974361762294
 10
-11.54076795022579
 20
16.86174749728841
 10
-11.70342787750566
 20
16.92524849390002
 10
-11.8614822035105
 20
16.96961550602441
 10
-12.013001796603
 20
16.99440759436236
 10
-12.15628464921931
 20
16.99937836400163
 10
-12.28986777911355
 20
16.98447841320035
 10
-12.41254075116601
 20
16.94985582436365
 10
-12.52336074634148
 20
16.89585469233426
 10
-12.62166883779464
 20
16.82301170462335
 10
-12.70710678118655
 20
16.73205080756888
 10
-12.77963305989657
 20
16.62387601143172
 10
-12.83953600262073
 20
16.49956240593547
 10
-12.88744037101156
 20
16.36034547554184
 10
-12.92430183857942
 20
16.20760882065095
 10
-12.95138144497938
 20
16.042870406759
 10
-12.97019016271462
 20
15.86776747823512
 10
-12.98239378565068
 20
15.68404028665134
 10
-12.98967291142446
 20
15.49351479538059
 10
-12.99354404004833
 20
15.29808453235235
 10
-12.99516504029878
 20
15.09969177132139
 10
-12.99516504029878
 20
14.9003082286786
 10
-12.99354404004833
 20
14.70191546764766
 10
-12.98967291142446
 20
14.50648520461941
 10
-12.98239378565068
 20
14.31595971334866
 10
-12.97019016271462
 20
14.13223252176488
 10
-12.95138144497938
 20
13.957129593241
 10
-12.92430183857943
 20
13.79239117934905
 10
-12.88744037101157
 20
13.63965452445816
 10
-12.83953600262074
 20
13.50043759406454
 10
-12.77963305989657
 20
13.37612398856829
 10
-12.70710678118655
 20
13.26794919243112
 10
-12.62166883779465
 20
13.17698829537665
 10
-12.52336074634148
 20
13.10414530766574
 10
-12.41254075116601
 20
13.05014417563635
 10
-12.28986777911355
 20
13.01552158679966
 10
-12.15628464921931
 20
13.00062163599837
 10
-12.013001796603
 20
13.00559240563764
 10
-11.8614822035105
 20
13.03038449397559
 10
-11.70342787750566
 20
13.07475150609998
 10
-11.54076795022578
 20
13.13825250271159
 10
-11.37564817323157
 20
13.22025638237706
 10
-11.21042113999108
 20
13.31994815369846
 10
-11.04763582941266
 20
13.43633703506394
 10
-10.89002389996615
 20
13.56826630148056
 10
-10.74047844980058
 20
13.71442478062692
 10
-10.60201873565109
 20
13.87335988387276
 10
-10.47773204146623
 20
14.04349204275736
 10
-10.37068266528908
 20
14.22313040745061
 10
-10.28377995338935
 20
14.41048965117819
 10
-10.21960502420608
 20
14.60370771360121
 10
-10.18021043964304
 20
14.80086430680837
 10
-10.1669252677111
 20
15.0
  0
LINE
  5
254
330
276
100
AcDbEntity
  8
hidden
100
AcDbLine
 10
-7.0
 20
-0.5000000000000012
 30
0.0
 11
-5.23030399291527
 21
-0.5000000000000014
 31
0.0
  0
LINE
  5
255
330
276
100
AcDbEntity
  8
hidden
100
AcDbLine
 10
-7.0
 20
-3.500000000000001
 30
0.0
 11
-5.230303992915272
 21
-3.500000000000001
 31
0.0
  0
LINE
  5
256
330
276
100
AcDbEntity
  8
hidden
100
AcDbLine
 10
-13.0
 20
-0.4999999999999996
 30
0.0
 11
-14.76969600708473
 21
-0.5000000000000004
 31
0.0
  0
LINE
  5
257
330
276
100
AcDbEntity
  8
hidden
100
AcDbLine
 10
-13.0
 20
-3.500000000000004
 30
0.0
 11
-14.76969600708473
 21
-3.500000000000001
 31
0.0
  0
ENDSEC
  0
SECTION
  2
OBJECTS
  0
DICTIONARY
  5
264
330
0
100
AcDbDictionary
281
     1
  3
ACAD_GROUP
350
265
  3
ACAD_LAYOUT
350
271
  3
ACAD_MATERIAL
350
292
  3
ACAD_MLEADERSTYLE
350
303
  3
ACAD_MLINESTYLE
350
26E
  3
ACAD_PLOTSETTINGS
350
270
  3
ACAD_PLOTSTYLENAME
350
266
  3
ACAD_SCALELIST
350
296
  3
ACAD_TABLESTYLE
350
302
  3
ACAD_VISUALSTYLE
350
281
  3
AcDbVariableDictionary
350
2FF
  3
ACDB_RECOMPOSE_DATA
350
301
  3
QCAD_OBJECTS
350
2BA
  0
SUN
  5
2B8
330
280
100
AcDbSun
 90
        1
290
     0
 63
     7
421
 16777215
 40
1.0
291
     1
 91
  2455826
 92
 54000000
292
     0
 70
     2
 71
   256
280
     1
  0
DICTIONARY
  5
265
102
{ACAD_REACTORS
330
264
102
}
330
264
100
AcDbDictionary
281
     1
  0
DICTIONARY
  5
271
102
{ACAD_REACTORS
330
264
102
}
330
264
100
AcDbDictionary
281
     1
  3
Layout1
350
275
  3
Layout2
350
27D
  3
Model
350
279
  0
DICTIONARY
  5
292
102
{ACAD_REACTORS
330
264
102
}
330
264
100
AcDbDictionary
281
     1
  3
ByBlock
350
294
  3
ByLayer
350
293
  3
Global
350
295
  0
DICTIONARY
  5
303
102
{ACAD_REACTORS
330
264
102
}
330
264
100
AcDbDictionary
281
     1
  0
DICTIONARY
  5
26E
102
{ACAD_REACTORS
330
264
102
}
330
264
100
AcDbDictionary
281
     1
  3
Standard
350
26F
  0
DICTIONARY
  5
270
102
{ACAD_REACTORS
330
264
102
}
330
264
100
AcDbDictionary
281
     1
  0
ACDBDICTIONARYWDFLT
  5
266
102
{ACAD_REACTORS
330
264
102
}
330
264
100
AcDbDictionary
281
     1
  3
Normal
350
267
100
AcDbDictionaryWithDefault
340
267
  0
DICTIONARY
  5
296
102
{ACAD_REACTORS
330
264
102
}
330
264
100
AcDbDictionary
281
     1
  3
A0
350
297
  3
A1
350
298
  3
A2
350
299
  3
A3
350
29A
  3
A4
350
29B
  3
A5
350
29C
  3
A6
350
29D
  3
A7
350
29E
  3
A8
350
29F
  3
A9
350
2A0
  3
B0
350
2A1
  3
B1
350
2A2
  3
B2
350
2A3
  3
B3
350
2A4
  3
B4
350
2A5
  3
B5
350
2A6
  3
B6
350
2A7
  3
B7
350
2A8
  3
B8
350
2A9
  3
B9
350
2AA
  3
C0
350
2AB
  3
C1
350
2AC
  3
C2
350
2AD
  3
C3
350
2AE
  3
C4
350
2AF
  3
C5
350
2B0
  3
C6
350
2B1
  3
C7
350
2B2
  3
C8
350
2B3
  3
C9
350
2B4
  3
D0
350
2B5
  3
D1
350
2B6
  3
D2
350
2B7
  0
DICTIONARY
  5
302
102
{ACAD_REACTORS
330
264
102
}
330
264
100
AcDbDictionary
281
     1
  0
DICTIONARY
  5
281
102
{ACAD_REACTORS
330
264
102
}
330
264
100
AcDbDictionary
281
     1
  3
2dWireframe
350
286
  3
3D Hidden
350
288
  3
3dWireframe
350
287
  3
Basic
350
289
  3
Brighten
350
28D
  3
ColorChange
350
291
  3
Conceptual
350
28B
  3
Dim
350
28C
  3
Facepattern
350
290
  3
Flat
350
282
  3
FlatWithEdges
350
283
  3
Gouraud
350
284
  3
GouraudWithEdges
350
285
  3
Linepattern
350
28F
  3
Realistic
350
28A
  3
Thicken
350
28E
  0
DICTIONARY
  5
2FF
102
{ACAD_REACTORS
330
264
102
}
330
264
100
AcDbDictionary
281
     1
  3
CANNOSCALE
350
300
  0
XRECORD
  5
301
102
{ACAD_REACTORS
330
264
102
}
330
264
100
AcDbXrecord
280
     1
  0
DICTIONARY
  5
2BA
102
{ACAD_REACTORS
330
264
102
}
330
264
100
AcDbDictionary
281
     1
  3
Grid/DisplayGrid00
350
2D0
  3
Grid/DisplayGrid01
350
2D1
  3
Grid/DisplayGrid02
350
2D2
  3
Grid/DisplayGrid03
350
2D5
  3
Grid/GridSpacingX00
350
2C7
  3
Grid/GridSpacingX01
350
2C8
  3
Grid/GridSpacingX02
350
2CB
  3
Grid/GridSpacingX03
350
2CD
  3
Grid/GridSpacingY00
350
2E3
  3
Grid/GridSpacingY01
350
2E4
  3
Grid/GridSpacingY02
350
2E5
  3
Grid/GridSpacingY03
350
2E6
  3
Grid/IsometricGrid00
350
2BB
  3
Grid/IsometricGrid01
350
2BD
  3
Grid/IsometricGrid02
350
2BE
  3
Grid/IsometricGrid03
350
2BF
  3
Grid/IsometricProjection00
350
2D8
  3
Grid/IsometricProjection01
350
2D9
  3
Grid/IsometricProjection02
350
2DB
  3
Grid/IsometricProjection03
350
2DF
  3
Grid/MetaGridSpacingX00
350
2C6
  3
Grid/MetaGridSpacingX01
350
2CA
  3
Grid/MetaGridSpacingX02
350
2CC
  3
Grid/MetaGridSpacingX03
350
2CE
  3
Grid/MetaGridSpacingY00
350
2C0
  3
Grid/MetaGridSpacingY01
350
2C1
  3
Grid/MetaGridSpacingY02
350
2C2
  3
Grid/MetaGridSpacingY03
350
2C3
  3
MultiPageSettings/Columns
350
2C5
  3
MultiPageSettings/GlueMarginsBottom
350
2CF
  3
MultiPageSettings/GlueMarginsLeft
350
2C4
  3
MultiPageSettings/GlueMarginsRight
350
2D7
  3
MultiPageSettings/GlueMarginsTop
350
2DA
  3
MultiPageSettings/PrintCropMarks
350
2D4
  3
MultiPageSettings/Rows
350
2C9
  3
PageSettings/OffsetX
350
2DC
  3
PageSettings/OffsetY
350
2DE
  3
PageSettings/PageOrientation
350
2E1
  3
PageSettings/PaperHeight
350
2E0
  3
PageSettings/PaperWidth
350
2E2
  3
PageSettings/Scale
350
2D3
  3
PageSettings/ShowPaperBorders
350
2D6
  3
UnitSettings/PaperUnit
350
2BC
  3
Viewport/ViewportList.data
350
2DD
  0
LAYOUT
  5
275
102
{ACAD_REACTORS
330
271
102
}
330
271
100
AcDbPlotSettings
  1

  2
none_device
  4

  6

 40
0.0
 41
0.0
 42
0.0
 43
0.0
 44
0.0
 45
0.0
 46
0.0
 47
0.0
 48
0.0
 49
0.0
140
0.0
141
0.0
142
1.0
143
1.0
 70
   688
 72
     0
 73
     0
 74
     5
  7

 75
    16
 76
     0
 77
     2
 78
   300
147
1.0
148
0.0
149
0.0
100
AcDbLayout
  1
Layout1
 70
     1
 71
     1
 10
0.0
 20
0.0
 11
12.0
 21
9.0
 12
0.0
 22
0.0
 32
0.0
 14
1.000000000000000E+20
 24
1.000000000000000E+20
 34
1.000000000000000E+20
 15
-1.000000000000000E+20
 25
-1.000000000000000E+20
 35
-1.000000000000000E+20
146
0.0
 13
0.0
 23
0.0
 33
0.0
 16
1.0
 26
0.0
 36
0.0
 17
0.0
 27
1.0
 37
0.0
 76
     0
330
272
  0
LAYOUT
  5
27D
102
{ACAD_REACTORS
330
271
102
}
330
271
100
AcDbPlotSettings
  1

  2
none_device
  4

  6

 40
0.0
 41
0.0
 42
0.0
 43
0.0
 44
0.0
 45
0.0
 46
0.0
 47
0.0
 48
0.0
 49
0.0
140
0.0
141
0.0
142
1.0
143
1.0
 70
   688
 72
     0
 73
     0
 74
     5
  7

 75
    16
 76
     0
 77
     2
 78
   300
147
1.0
148
0.0
149
0.0
100
AcDbLayout
  1
Layout2
 70
     1
 71
     2
 10
0.0
 20
0.0
 11
0.0
 21
0.0
 12
0.0
 22
0.0
 32
0.0
 14
0.0
 24
0.0
 34
0.0
 15
0.0
 25
0.0
 35
0.0
146
0.0
 13
0.0
 23
0.0
 33
0.0
 16
1.0
 26
0.0
 36
0.0
 17
0.0
 27
1.0
 37
0.0
 76
     0
330
27A
  0
LAYOUT
  5
279
102
{ACAD_REACTORS
330
271
102
}
330
271
100
AcDbPlotSettings
  1

  2
none_device
  4

  6

 40
0.0
 41
0.0
 42
0.0
 43
0.0
 44
0.0
 45
0.0
 46
0.0
 47
0.0
 48
0.0
 49
0.0
140
0.0
141
0.0
142
1.0
143
1.0
 70
  1712
 72
     0
 73
     0
 74
     0
  7

 75
     0
 76
     0
 77
     2
 78
   300
147
1.0
148
0.0
149
0.0
100
AcDbLayout
  1
Model
 70
     1
 71
     0
 10
0.0
 20
0.0
 11
12.0
 21
9.0
 12
0.0
 22
0.0
 32
0.0
 14
1.000000000000000E+20
 24
1.000000000000000E+20
 34
1.000000000000000E+20
 15
-1.000000000000000E+20
 25
-1.000000000000000E+20
 35
-1.000000000000000E+20
146
0.0
 13
0.0
 23
0.0
 33
0.0
 16
1.0
 26
0.0
 36
0.0
 17
0.0
 27
1.0
 37
0.0
 76
     0
330
276
331
280
  0
MATERIAL
  5
294
102
{ACAD_REACTORS
330
292
102
}
330
292
100
AcDbMaterial
  1
ByBlock
 72
     1
 94
      127
  0
MATERIAL
  5
293
102
{ACAD_REACTORS
330
292
102
}
330
292
100
AcDbMaterial
  1
ByLayer
 72
     1
 94
      127
  0
MATERIAL
  5
295
102
{ACAD_REACTORS
330
292
102
}
330
292
100
AcDbMaterial
  1
Global
 72
     1
 94
      127
  0
MLINESTYLE
  5
26F
102
{ACAD_REACTORS
330
26E
102
}
330
26E
100
AcDbMlineStyle
  2
Standard
 70
     0
  3

 62
   256
 51
90.0
 52
90.0
 71
     2
 49
0.5
 62
   256
  6
BYLAYER
 49
-0.5
 62
   256
  6
BYLAYER
  0
ACDBPLACEHOLDER
  5
267
102
{ACAD_REACTORS
330
266
102
}
330
266
  0
SCALE
  5
297
102
{ACAD_REACTORS
330
296
102
}
330
296
100
AcDbScale
 70
     0
300
1:1
140
1.0
141
1.0
290
     1
  0
SCALE
  5
298
102
{ACAD_REACTORS
330
296
102
}
330
296
100
AcDbScale
 70
     0
300
1:2
140
1.0
141
2.0
290
     0
  0
SCALE
  5
299
102
{ACAD_REACTORS
330
296
102
}
330
296
100
AcDbScale
 70
     0
300
1:4
140
1.0
141
4.0
290
     0
  0
SCALE
  5
29A
102
{ACAD_REACTORS
330
296
102
}
330
296
100
AcDbScale
 70
     0
300
1:5
140
1.0
141
5.0
290
     0
  0
SCALE
  5
29B
102
{ACAD_REACTORS
330
296
102
}
330
296
100
AcDbScale
 70
     0
300
1:8
140
1.0
141
8.0
290
     0
  0
SCALE
  5
29C
102
{ACAD_REACTORS
330
296
102
}
330
296
100
AcDbScale
 70
     0
300
1:10
140
1.0
141
10.0
290
     0
  0
SCALE
  5
29D
102
{ACAD_REACTORS
330
296
102
}
330
296
100
AcDbScale
 70
     0
300
1:16
140
1.0
141
16.0
290
     0
  0
SCALE
  5
29E
102
{ACAD_REACTORS
330
296
102
}
330
296
100
AcDbScale
 70
     0
300
1:20
140
1.0
141
20.0
290
     0
  0
SCALE
  5
29F
102
{ACAD_REACTORS
330
296
102
}
330
296
100
AcDbScale
 70
     0
300
1:30
140
1.0
141
30.0
290
     0
  0
SCALE
  5
2A0
102
{ACAD_REACTORS
330
296
102
}
330
296
100
AcDbScale
 70
     0
300
1:40
140
1.0
141
40.0
290
     0
  0
SCALE
  5
2A1
102
{ACAD_REACTORS
330
296
102
}
330
296
100
AcDbScale
 70
     0
300
1:50
140
1.0
141
50.0
290
     0
  0
SCALE
  5
2A2
102
{ACAD_REACTORS
330
296
102
}
330
296
100
AcDbScale
 70
     0
300
1:100
140
1.0
141
100.0
290
     0
  0
SCALE
  5
2A3
102
{ACAD_REACTORS
330
296
102
}
330
296
100
AcDbScale
 70
     0
300
2:1
140
2.0
141
1.0
290
     0
  0
SCALE
  5
2A4
102
{ACAD_REACTORS
330
296
102
}
330
296
100
AcDbScale
 70
     0
300
4:1
140
4.0
141
1.0
290
     0
  0
SCALE
  5
2A5
102
{ACAD_REACTORS
330
296
102
}
330
296
100
AcDbScale
 70
     0
300
8:1
140
8.0
141
1.0
290
     0
  0
SCALE
  5
2A6
102
{ACAD_REACTORS
330
296
102
}
330
296
100
AcDbScale
 70
     0
300
10:1
140
10.0
141
1.0
290
     0
  0
SCALE
  5
2A7
102
{ACAD_REACTORS
330
296
102
}
330
296
100
AcDbScale
 70
     0
300
100:1
140
100.0
141
1.0
290
     0
  0
SCALE
  5
2A8
102
{ACAD_REACTORS
330
296
102
}
330
296
100
AcDbScale
 70
     0
300
1/128" = 1'-0"
140
0.0078125
141
12.0
290
     0
  0
SCALE
  5
2A9
102
{ACAD_REACTORS
330
296
102
}
330
296
100
AcDbScale
 70
     0
300
1/64" = 1'-0"
140
0.015625
141
12.0
290
     0
  0
SCALE
  5
2AA
102
{ACAD_REACTORS
330
296
102
}
330
296
100
AcDbScale
 70
     0
300
1/32" = 1'-0"
140
0.03125
141
12.0
290
     0
  0
SCALE
  5
2AB
102
{ACAD_REACTORS
330
296
102
}
330
296
100
AcDbScale
 70
     0
300
1/16" = 1'-0"
140
0.0625
141
12.0
290
     0
  0
SCALE
  5
2AC
102
{ACAD_REACTORS
330
296
102
}
330
296
100
AcDbScale
 70
     0
300
3/32" = 1'-0"
140
0.09375
141
12.0
290
     0
  0
SCALE
  5
2AD
102
{ACAD_REACTORS
330
296
102
}
330
296
100
AcDbScale
 70
     0
300
1/8" = 1'-0"
140
0.125
141
12.0
290
     0
  0
SCALE
  5
2AE
102
{ACAD_REACTORS
330
296
102
}
330
296
100
AcDbScale
 70
     0
300
3/16" = 1'-0"
140
0.1875
141
12.0
290
     0
  0
SCALE
  5
2AF
102
{ACAD_REACTORS
330
296
102
}
330
296
100
AcDbScale
 70
     0
300
1/4" = 1'-0"
140
0.25
141
12.0
290
     0
  0
SCALE
  5
2B0
102
{ACAD_REACTORS
330
296
102
}
330
296
100
AcDbScale
 70
     0
300
3/8" = 1'-0"
140
0.375
141
12.0
290
     0
  0
SCALE
  5
2B1
102
{ACAD_REACTORS
330
296
102
}
330
296
100
AcDbScale
 70
     0
300
1/2" = 1'-0"
140
0.5
141
12.0
290
     0
  0
SCALE
  5
2B2
102
{ACAD_REACTORS
330
296
102
}
330
296
100
AcDbScale
 70
     0
300
3/4" = 1'-0"
140
0.75
141
12.0
290
     0
  0
SCALE
  5
2B3
102
{ACAD_REACTORS
330
296
102
}
330
296
100
AcDbScale
 70
     0
300
1" = 1'-0"
140
1.0
141
12.0
290
     0
  0
SCALE
  5
2B4
102
{ACAD_REACTORS
330
296
102
}
330
296
100
AcDbScale
 70
     0
300
1-1/2" = 1'-0"
140
1.5
141
12.0
290
     0
  0
SCALE
  5
2B5
102
{ACAD_REACTORS
330
296
102
}
330
296
100
AcDbScale
 70
     0
300
3" = 1'-0"
140
3.0
141
12.0
290
     0
  0
SCALE
  5
2B6
102
{ACAD_REACTORS
330
296
102
}
330
296
100
AcDbScale
 70
     0
300
6" = 1'-0"
140
6.0
141
12.0
290
     0
  0
SCALE
  5
2B7
102
{ACAD_REACTORS
330
296
102
}
330
296
100
AcDbScale
 70
     0
300
1'-0" = 1'-0"
140
12.0
141
12.0
290
     0
  0
VISUALSTYLE
  5
286
102
{ACAD_REACTORS
330
281
102
}
330
281
100
AcDbVisualStyle
  2
2dWireframe
 70
     4
177
     2
291
     0
 71
     0
176
     1
 72
     2
176
     1
 73
     0
176
     1
 90
        0
176
     1
 40
-0.6
176
     1
 41
-30.0
176
     1
 62
     5
 63
     7
421
 16777215
176
     1
 74
     1
176
     1
 91
        4
176
     1
 64
     7
176
     1
 65
   257
176
     1
 75
     1
176
     1
175
     1
176
     1
 42
1.0
176
     1
 92
        0
176
     1
 66
   257
176
     1
 43
1.0
176
     1
 76
     1
176
     1
 77
     6
176
     1
 78
     2
176
     1
 67
     7
176
     1
 79
     5
176
     1
170
     0
176
     1
171
     0
176
     1
290
     0
176
     1
 93
        1
176
     1
 44
0.0
176
     1
173
     0
176
     1
  0
VISUALSTYLE
  5
288
102
{ACAD_REACTORS
330
281
102
}
330
281
100
AcDbVisualStyle
  2
3D Hidden
 70
     6
177
     2
291
     0
 71
     1
176
     1
 72
     2
176
     1
 73
     2
176
     1
 90
        0
176
     1
 40
-0.6
176
     1
 41
-30.0
176
     1
 62
     5
 63
     7
421
 16777215
176
     1
 74
     2
176
     1
 91
        2
176
     1
 64
     7
176
     1
 65
   257
176
     1
 75
     2
176
     1
175
     1
176
     1
 42
40.0
176
     1
 92
        0
176
     1
 66
   257
176
     1
 43
1.0
176
     1
 76
     1
176
     1
 77
     6
176
     1
 78
     2
176
     1
 67
     7
176
     1
 79
     3
176
     1
170
     0
176
     1
171
     0
176
     1
290
     0
176
     1
 93
        1
176
     1
 44
0.0
176
     1
173
     0
176
     1
  0
VISUALSTYLE
  5
287
102
{ACAD_REACTORS
330
281
102
}
330
281
100
AcDbVisualStyle
  2
3dWireframe
 70
     5
177
     2
291
     0
 71
     0
176
     1
 72
     2
176
     1
 73
     0
176
     1
 90
        0
176
     1
 40
-0.6
176
     1
 41
-30.0
176
     1
 62
     5
 63
     7
421
 16777215
176
     1
 74
     1
176
     1
 91
        4
176
     1
 64
     7
176
     1
 65
   257
176
     1
 75
     1
176
     1
175
     1
176
     1
 42
1.0
176
     1
 92
        0
176
     1
 66
   257
176
     1
 43
1.0
176
     1
 76
     1
176
     1
 77
     6
176
     1
 78
     2
176
     1
 67
     7
176
     1
 79
     5
176
     1
170
     0
176
     1
171
     0
176
     1
290
     0
176
     1
 93
        1
176
     1
 44
0.0
176
     1
173
     0
176
     1
  0
VISUALSTYLE
  5
289
102
{ACAD_REACTORS
330
281
102
}
330
281
100
AcDbVisualStyle
  2
Basic
 70
     7
177
     2
291
     1
 71
     1
176
     1
 72
     0
176
     1
 73
     1
176
     1
 90
        0
176
     1
 40
-0.6
176
     1
 41
-30.0
176
     1
 62
     5
 63
     7
421
 16777215
176
     1
 74
     0
176
     1
 91
        4
176
     1
 64
     7
176
     1
 65
   257
176
     1
 75
     1
176
     1
175
     1
176
     1
 42
1.0
176
     1
 92
        8
176
     1
 66
     7
176
     1
 43
1.0
176
     1
 76
     1
176
     1
 77
     6
176
     1
 78
     2
176
     1
 67
     7
176
     1
 79
     5
176
     1
170
     0
176
     1
171
     0
176
     1
290
     0
176
     1
 93
        1
176
     1
 44
0.0
176
     1
173
     0
176
     1
  0
VISUALSTYLE
  5
28D
102
{ACAD_REACTORS
330
281
102
}
330
281
100
AcDbVisualStyle
  2
Brighten
 70
    12
177
     2
291
     1
 71
     2
176
     1
 72
     2
176
     1
 73
     0
176
     1
 90
        0
176
     1
 40
-0.6
176
     1
 41
-30.0
176
     1
 62
     5
 63
     7
421
 16777215
176
     1
 74
     1
176
     1
 91
        4
176
     1
 64
     7
176
     1
 65
   257
176
     1
 75
     1
176
     1
175
     1
176
     1
 42
1.0
176
     1
 92
        8
176
     1
 66
     7
176
     1
 43
1.0
176
     1
 76
     1
176
     1
 77
     6
176
     1
 78
     2
176
     1
 67
     7
176
     1
 79
     5
176
     1
170
     0
176
     1
171
     0
176
     1
290
     0
176
     1
 93
        1
176
     1
 44
50.0
176
     1
173
     0
176
     1
  0
VISUALSTYLE
  5
291
102
{ACAD_REACTORS
330
281
102
}
330
281
100
AcDbVisualStyle
  2
ColorChange
 70
    16
177
     2
291
     1
 71
     2
176
     1
 72
     2
176
     1
 73
     3
176
     1
 90
        0
176
     1
 40
-0.6
176
     1
 41
-30.0
176
     1
 62
     5
 63
     8
421
  8421504
176
     1
 74
     1
176
     1
 91
        4
176
     1
 64
     7
176
     1
 65
   257
176
     1
 75
     1
176
     1
175
     1
176
     1
 42
1.0
176
     1
 92
        8
176
     1
 66
     8
424
  8421504
176
     1
 43
1.0
176
     1
 76
     1
176
     1
 77
     6
176
     1
 78
     2
176
     1
 67
     7
176
     1
 79
     5
176
     1
170
     0
176
     1
171
     0
176
     1
290
     0
176
     1
 93
        1
176
     1
 44
0.0
176
     1
173
     0
176
     1
  0
VISUALSTYLE
  5
28B
102
{ACAD_REACTORS
330
281
102
}
330
281
100
AcDbVisualStyle
  2
Conceptual
 70
     9
177
     2
291
     0
 71
     3
176
     1
 72
     2
176
     1
 73
     0
176
     1
 90
        0
176
     1
 40
-0.6
176
     1
 41
-30.0
176
     1
 62
     5
 63
     7
421
 16777215
176
     1
 74
     2
176
     1
 91
        2
176
     1
 64
     7
176
     1
 65
   257
176
     1
 75
     1
176
     1
175
     1
176
     1
 42
40.0
176
     1
 92
        8
176
     1
 66
     7
176
     1
 43
1.0
176
     1
 76
     1
176
     1
 77
     6
176
     1
 78
     2
176
     1
 67
     7
176
     1
 79
     3
176
     1
170
     0
176
     1
171
     0
176
     1
290
     0
176
     1
 93
        1
176
     1
 44
0.0
176
     1
173
     0
176
     1
  0
VISUALSTYLE
  5
28C
102
{ACAD_REACTORS
330
281
102
}
330
281
100
AcDbVisualStyle
  2
Dim
 70
    11
177
     2
291
     1
 71
     2
176
     1
 72
     2
176
     1
 73
     0
176
     1
 90
        0
176
     1
 40
-0.6
176
     1
 41
-30.0
176
     1
 62
     5
 63
     7
421
 16777215
176
     1
 74
     1
176
     1
 91
        4
176
     1
 64
     7
176
     1
 65
   257
176
     1
 75
     1
176
     1
175
     1
176
     1
 42
1.0
176
     1
 92
        8
176
     1
 66
     7
176
     1
 43
1.0
176
     1
 76
     1
176
     1
 77
     6
176
     1
 78
     2
176
     1
 67
     7
176
     1
 79
     5
176
     1
170
     0
176
     1
171
     0
176
     1
290
     0
176
     1
 93
        1
176
     1
 44
-50.0
176
     1
173
     0
176
     1
  0
VISUALSTYLE
  5
290
102
{ACAD_REACTORS
330
281
102
}
330
281
100
AcDbVisualStyle
  2
Facepattern
 70
    15
177
     2
291
     1
 71
     2
176
     1
 72
     2
176
     1
 73
     0
176
     1
 90
        0
176
     1
 40
-0.6
176
     1
 41
-30.0
176
     1
 62
     5
 63
     7
421
 16777215
176
     1
 74
     1
176
     1
 91
        4
176
     1
 64
     7
176
     1
 65
   257
176
     1
 75
     1
176
     1
175
     1
176
     1
 42
1.0
176
     1
 92
        8
176
     1
 66
     7
176
     1
 43
1.0
176
     1
 76
     1
176
     1
 77
     6
176
     1
 78
     2
176
     1
 67
     7
176
     1
 79
     5
176
     1
170
     0
176
     1
171
     0
176
     1
290
     0
176
     1
 93
        1
176
     1
 44
0.0
176
     1
173
     0
176
     1
  0
VISUALSTYLE
  5
282
102
{ACAD_REACTORS
330
281
102
}
330
281
100
AcDbVisualStyle
  2
Flat
 70
     0
177
     2
291
     1
 71
     2
176
     1
 72
     1
176
     1
 73
     1
176
     1
 90
        2
176
     1
 40
-0.6
176
     1
 41
30.0
176
     1
 62
     5
 63
     7
421
 16777215
176
     1
 74
     0
176
     1
 91
        4
176
     1
 64
     7
176
     1
 65
   257
176
     1
 75
     1
176
     1
175
     1
176
     1
 42
1.0
176
     1
 92
        8
176
     1
 66
     7
176
     1
 43
1.0
176
     1
 76
     1
176
     1
 77
     6
176
     1
 78
     2
176
     1
 67
     7
176
     1
 79
     5
176
     1
170
     0
176
     1
171
     0
176
     1
290
     0
176
     1
 93
       13
176
     1
 44
0.0
176
     1
173
     0
176
     1
  0
VISUALSTYLE
  5
283
102
{ACAD_REACTORS
330
281
102
}
330
281
100
AcDbVisualStyle
  2
FlatWithEdges
 70
     1
177
     2
291
     1
 71
     2
176
     1
 72
     1
176
     1
 73
     1
176
     1
 90
        2
176
     1
 40
-0.6
176
     1
 41
30.0
176
     1
 62
     5
 63
     7
421
 16777215
176
     1
 74
     1
176
     1
 91
        4
176
     1
 64
     7
176
     1
 65
   257
176
     1
 75
     1
176
     1
175
     1
176
     1
 42
1.0
176
     1
 92
        0
176
     1
 66
   257
176
     1
 43
1.0
176
     1
 76
     1
176
     1
 77
     6
176
     1
 78
     2
176
     1
 67
     7
176
     1
 79
     5
176
     1
170
     0
176
     1
171
     0
176
     1
290
     0
176
     1
 93
       13
176
     1
 44
0.0
176
     1
173
     0
176
     1
  0
VISUALSTYLE
  5
284
102
{ACAD_REACTORS
330
281
102
}
330
281
100
AcDbVisualStyle
  2
Gouraud
 70
     2
177
     2
291
     1
 71
     2
176
     1
 72
     2
176
     1
 73
     1
176
     1
 90
        2
176
     1
 40
-0.6
176
     1
 41
30.0
176
     1
 62
     5
 63
     7
421
 16777215
176
     1
 74
     0
176
     1
 91
        4
176
     1
 64
     7
176
     1
 65
   257
176
     1
 75
     1
176
     1
175
     1
176
     1
 42
1.0
176
     1
 92
        0
176
     1
 66
     7
176
     1
 43
1.0
176
     1
 76
     1
176
     1
 77
     6
176
     1
 78
     2
176
     1
 67
     7
176
     1
 79
     5
176
     1
170
     0
176
     1
171
     0
176
     1
290
     0
176
     1
 93
       13
176
     1
 44
0.0
176
     1
173
     0
176
     1
  0
VISUALSTYLE
  5
285
102
{ACAD_REACTORS
330
281
102
}
330
281
100
AcDbVisualStyle
  2
GouraudWithEdges
 70
     3
177
     2
291
     1
 71
     2
176
     1
 72
     2
176
     1
 73
     1
176
     1
 90
        2
176
     1
 40
-0.6
176
     1
 41
30.0
176
     1
 62
     5
 63
     7
421
 16777215
176
     1
 74
     1
176
     1
 91
        4
176
     1
 64
     7
176
     1
 65
   257
176
     1
 75
     1
176
     1
175
     1
176
     1
 42
1.0
176
     1
 92
        0
176
     1
 66
   257
176
     1
 43
1.0
176
     1
 76
     1
176
     1
 77
     6
176
     1
 78
     2
176
     1
 67
     7
176
     1
 79
     5
176
     1
170
     0
176
     1
171
     0
176
     1
290
     0
176
     1
 93
       13
176
     1
 44
0.0
176
     1
173
     0
176
     1
  0
VISUALSTYLE
  5
28F
102
{ACAD_REACTORS
330
281
102
}
330
281
100
AcDbVisualStyle
  2
Linepattern
 70
    14
177
     2
291
     1
 71
     2
176
     1
 72
     2
176
     1
 73
     0
176
     1
 90
        0
176
     1
 40
-0.6
176
     1
 41
-30.0
176
     1
 62
     5
 63
     7
421
 16777215
176
     1
 74
     1
176
     1
 91
        4
176
     1
 64
     7
176
     1
 65
   257
176
     1
 75
     7
176
     1
175
     7
176
     1
 42
1.0
176
     1
 92
        8
176
     1
 66
     7
176
     1
 43
1.0
176
     1
 76
     1
176
     1
 77
     6
176
     1
 78
     2
176
     1
 67
     7
176
     1
 79
     5
176
     1
170
     0
176
     1
171
     0
176
     1
290
     0
176
     1
 93
        1
176
     1
 44
0.0
176
     1
173
     0
176
     1
  0
VISUALSTYLE
  5
28A
102
{ACAD_REACTORS
330
281
102
}
330
281
100
AcDbVisualStyle
  2
Realistic
 70
     8
177
     2
291
     0
 71
     2
176
     1
 72
     2
176
     1
 73
     0
176
     1
 90
        0
176
     1
 40
-0.6
176
     1
 41
-30.0
176
     1
 62
     5
 63
     7
421
 16777215
176
     1
 74
     1
176
     1
 91
        0
176
     1
 64
     7
176
     1
 65
   257
176
     1
 75
     1
176
     1
175
     1
176
     1
 42
1.0
176
     1
 92
        8
176
     1
 66
     8
424
  7895160
176
     1
 43
1.0
176
     1
 76
     1
176
     1
 77
     6
176
     1
 78
     2
176
     1
 67
     7
176
     1
 79
     5
176
     1
170
     0
176
     1
171
     0
176
     1
290
     0
176
     1
 93
       13
176
     1
 44
0.0
176
     1
173
     0
176
     1
  0
VISUALSTYLE
  5
28E
102
{ACAD_REACTORS
330
281
102
}
330
281
100
AcDbVisualStyle
  2
Thicken
 70
    13
177
     2
291
     1
 71
     2
176
     1
 72
     2
176
     1
 73
     0
176
     1
 90
        0
176
     1
 40
-0.6
176
     1
 41
-30.0
176
     1
 62
     5
 63
     7
421
 16777215
176
     1
 74
     1
176
     1
 91
        4
176
     1
 64
     7
176
     1
 65
   257
176
     1
 75
     1
176
     1
175
     1
176
     1
 42
1.0
176
     1
 92
       12
176
     1
 66
     7
176
     1
 43
1.0
176
     1
 76
     1
176
     1
 77
     6
176
     1
 78
     2
176
     1
 67
     7
176
     1
 79
     5
176
     1
170
     0
176
     1
171
     0
176
     1
290
     0
176
     1
 93
        1
176
     1
 44
0.0
176
     1
173
     0
176
     1
  0
DICTIONARYVAR
  5
300
102
{ACAD_REACTORS
330
2FF
102
}
330
2FF
100
DictionaryVariables
280
     0
  1
1:1
  0
XRECORD
  5
2D0
102
{ACAD_REACTORS
330
2BA
102
}
330
2BA
100
AcDbXrecord
280
     1
290
     1
  0
XRECORD
  5
2D1
102
{ACAD_REACTORS
330
2BA
102
}
330
2BA
100
AcDbXrecord
280
     1
290
     1
  0
XRECORD
  5
2D2
102
{ACAD_REACTORS
330
2BA
102
}
330
2BA
100
AcDbXrecord
280
     1
290
     1
  0
XRECORD
  5
2D5
102
{ACAD_REACTORS
330
2BA
102
}
330
2BA
100
AcDbXrecord
280
     1
290
     1
  0
XRECORD
  5
2C7
102
{ACAD_REACTORS
330
2BA
102
}
330
2BA
100
AcDbXrecord
280
     1
1000
auto
  0
XRECORD
  5
2C8
102
{ACAD_REACTORS
330
2BA
102
}
330
2BA
100
AcDbXrecord
280
     1
1000
auto
  0
XRECORD
  5
2CB
102
{ACAD_REACTORS
330
2BA
102
}
330
2BA
100
AcDbXrecord
280
     1
1000
auto
  0
XRECORD
  5
2CD
102
{ACAD_REACTORS
330
2BA
102
}
330
2BA
100
AcDbXrecord
280
     1
1000
auto
  0
XRECORD
  5
2E3
102
{ACAD_REACTORS
330
2BA
102
}
330
2BA
100
AcDbXrecord
280
     1
1000
auto
  0
XRECORD
  5
2E4
102
{ACAD_REACTORS
330
2BA
102
}
330
2BA
100
AcDbXrecord
280
     1
1000
auto
  0
XRECORD
  5
2E5
102
{ACAD_REACTORS
330
2BA
102
}
330
2BA
100
AcDbXrecord
280
     1
1000
auto
  0
XRECORD
  5
2E6
102
{ACAD_REACTORS
330
2BA
102
}
330
2BA
100
AcDbXrecord
280
     1
1000
auto
  0
XRECORD
  5
2BB
102
{ACAD_REACTORS
330
2BA
102
}
330
2BA
100
AcDbXrecord
280
     1
290
     0
  0
XRECORD
  5
2BD
102
{ACAD_REACTORS
330
2BA
102
}
330
2BA
100
AcDbXrecord
280
     1
290
     1
  0
XRECORD
  5
2BE
102
{ACAD_REACTORS
330
2BA
102
}
330
2BA
100
AcDbXrecord
280
     1
290
     0
  0
XRECORD
  5
2BF
102
{ACAD_REACTORS
330
2BA
102
}
330
2BA
100
AcDbXrecord
280
     1
290
     1
  0
XRECORD
  5
2D8
102
{ACAD_REACTORS
330
2BA
102
}
330
2BA
100
AcDbXrecord
280
     1
 90
        0
  0
XRECORD
  5
2D9
102
{ACAD_REACTORS
330
2BA
102
}
330
2BA
100
AcDbXrecord
280
     1
 90
        0
  0
XRECORD
  5
2DB
102
{ACAD_REACTORS
330
2BA
102
}
330
2BA
100
AcDbXrecord
280
     1
 90
        0
  0
XRECORD
  5
2DF
102
{ACAD_REACTORS
330
2BA
102
}
330
2BA
100
AcDbXrecord
280
     1
 90
        0
  0
XRECORD
  5
2C6
102
{ACAD_REACTORS
330
2BA
102
}
330
2BA
100
AcDbXrecord
280
     1
1000
auto
  0
XRECORD
  5
2CA
102
{ACAD_REACTORS
330
2BA
102
}
330
2BA
100
AcDbXrecord
280
     1
1000
auto
  0
XRECORD
  5
2CC
102
{ACAD_REACTORS
330
2BA
102
}
330
2BA
100
AcDbXrecord
280
     1
1000
auto
  0
XRECORD
  5
2CE
102
{ACAD_REACTORS
330
2BA
102
}
330
2BA
100
AcDbXrecord
280
     1
1000
auto
  0
XRECORD
  5
2C0
102
{ACAD_REACTORS
330
2BA
102
}
330
2BA
100
AcDbXrecord
280
     1
1000
auto
  0
XRECORD
  5
2C1
102
{ACAD_REACTORS
330
2BA
102
}
330
2BA
100
AcDbXrecord
280
     1
1000
auto
  0
XRECORD
  5
2C2
102
{ACAD_REACTORS
330
2BA
102
}
330
2BA
100
AcDbXrecord
280
     1
1000
auto
  0
XRECORD
  5
2C3
102
{ACAD_REACTORS
330
2BA
102
}
330
2BA
100
AcDbXrecord
280
     1
1000
auto
  0
XRECORD
  5
2C5
102
{ACAD_REACTORS
330
2BA
102
}
330
2BA
100
AcDbXrecord
280
     1
 90
        1
  0
XRECORD
  5
2CF
102
{ACAD_REACTORS
330
2BA
102
}
330
2BA
100
AcDbXrecord
280
     1
 40
10.0
  0
XRECORD
  5
2C4
102
{ACAD_REACTORS
330
2BA
102
}
330
2BA
100
AcDbXrecord
280
     1
 40
10.0
  0
XRECORD
  5
2D7
102
{ACAD_REACTORS
330
2BA
102
}
330
2BA
100
AcDbXrecord
280
     1
 40
10.0
  0
XRECORD
  5
2DA
102
{ACAD_REACTORS
330
2BA
102
}
330
2BA
100
AcDbXrecord
280
     1
 40
10.0
  0
XRECORD
  5
2D4
102
{ACAD_REACTORS
330
2BA
102
}
330
2BA
100
AcDbXrecord
280
     1
290
     0
  0
XRECORD
  5
2C9
102
{ACAD_REACTORS
330
2BA
102
}
330
2BA
100
AcDbXrecord
280
     1
 90
        1
  0
XRECORD
  5
2DC
102
{ACAD_REACTORS
330
2BA
102
}
330
2BA
100
AcDbXrecord
280
     1
 40
0.0
  0
XRECORD
  5
2DE
102
{ACAD_REACTORS
330
2BA
102
}
330
2BA
100
AcDbXrecord
280
     1
 40
0.0
  0
XRECORD
  5
2E1
102
{ACAD_REACTORS
330
2BA
102
}
330
2BA
100
AcDbXrecord
280
     1
1000
Portrait
  0
XRECORD
  5
2E0
102
{ACAD_REACTORS
330
2BA
102
}
330
2BA
100
AcDbXrecord
280
     1
 40
297.0
  0
XRECORD
  5
2E2
102
{ACAD_REACTORS
330
2BA
102
}
330
2BA
100
AcDbXrecord
280
     1
 40
210.0
  0
XRECORD
  5
2D3
102
{ACAD_REACTORS
330
2BA
102
}
330
2BA
100
AcDbXrecord
280
     1
1000
1:1
  0
XRECORD
  5
2D6
102
{ACAD_REACTORS
330
2BA
102
}
330
2BA
100
AcDbXrecord
280
     1
290
     1
  0
XRECORD
  5
2BC
102
{ACAD_REACTORS
330
2BA
102
}
330
2BA
100
AcDbXrecord
280
     1
 90
        4
  0
XRECORD
  5
2DD
102
{ACAD_REACTORS
330
2BA
102
}
330
2BA
100
AcDbXrecord
280
     1
1000
10_TwoVertical.ui
  0
ENDSEC
  0
EOF
